A-Ha - Little Black Heart, аккорды

Прокрутка
Тональность
Шрифт
100
|---3---3---2---2-----------------3---3---2---2-----| (2x)
|-----0---0---0---0---3---3--0------0---0---0---0---|
|-----------------------0---------------------------|
|---------------------------------------------------|
|---------------------------------------------------|
|---------------------------------------------------|
 
Em Bm
I never saw sunlight
C Em C
Burn as bright
Em
I never felt darkness
Bm C Em C
The way I feel it tonight

G C
You say it's getting better
G C
You say it's alright

Am Em
But I never felt darkness
Bm C D
Like I feel it tonight
Bm Em
Little black heart

|---3---3---2---2-----------------3---3---2---2-----|
|-----0---0---0---0---3---3--0------0---0---0---0---|
|-----------------------0---------------------------|
|---------------------------------------------------|
|---------------------------------------------------|
|---------------------------------------------------|

Em
Raindrops on my window
Bm C Em C
I can't tell them apart
Em Bm
Like the few things forgiven
C Em C
In my little black heart

G
You say it's getting better
C G C
We just never got it right

Am Em
But I never felt darkness
Bm C D
The way I feel it tonight
Bm Em
Little black heart

|---3---3---2---2-----------------3---3---2---2-----|
|-----0---0---0---0---3---3--0------0---0---0---0---|
|-----------------------0---------------------------|
|---------------------------------------------------|
|---------------------------------------------------|
|---------------------------------------------------|

D
Some day we will shine
Bm E
Like the moon in the morning
F G
Like the sun when it's dawning
F G
Yes the sun when it's dawning
F G D
The sun

|---3---3---2---2-----------------3---3---2---2-----|
|-----0---0---0---0---3---3--0------0---0---0---0---|
|-----------------------0---------------------------|
|---------------------------------------------------|
|---------------------------------------------------|
|---------------------------------------------------|

G, C, G, C, G, C, G, C, G, C, G, C, Am

D
Some day we will shine
Bm E
Like the moon in the morning
F G
Like the sun when it's dawning
F G
Yes the sun when it's dawning
F G F Bm
The sun

D Em
Raindrops on my window
Bm C Em C
I can't tell them apart
Em Bm
Like a few things forgotten
C Em C
And a few things ignored

G C
You say it's getting better
G C
You say it's alright

Am Em
But I never felt darkness
Bm C D
The way I feel it tonight
Bm Em
Little black heart

|---3---3---2---2-----------------3---3---2---2-----|
|-----0---0---0---0---3---3--0------0---0---0---0---|
|-----------------------0---------------------------|
|---------------------------------------------------|
|---------------------------------------------------|
|---------------------------------------------------|

My little black heart

|---3---3---2---2-----------------3---3---2---2-----|
|-----0---0---0---0---3---3--0------0---0---0---0---|
|-----------------------0---------------------------|
|---------------------------------------------------|
|---------------------------------------------------|
|---------------------------------------------------|
 
 

Видео