A-Ha - Take On Me, аккорды

Прокрутка
Тональность
Шрифт
100
E|-2-----2--------------------0---0----4----5----7-----5-----5-----0-|
B|---------------3----0---0------------------------------------------|
G|-------------------------------------------------------------------|
D|-------------------------------------------------------------------|
A|-------------------------------------------------------------------|
E|-------------------------------------------------------------------|

E|-------2------2------0------2-----0-|
B|-2----------------------------------|
G|------------------------------------|
D|------------------------------------|
A|------------------------------------|
E|------------------------------------|
 
 

Видео