A-Ha - Summer Moved On, аккорды

Прокрутка
Тональность
Шрифт
100
Intro: 
Riff 1:
e|-------------  
B|------------- 	 	
G|-------------   x4
D|----9--9-9-9-    
A|-7--------7--   
E|-------------  
	       	
Riff 2:
-------------------------------
-------------------------------
---12-12-12h11-11----9-9-9h7-7-
-9----------------7------------
-------------------------------
-------------------------------

Riff 3:
-------------
-------------
----9------7-
-7-------9---
-------7-----
-------------

Solo:									
							       G#aug   fast  	
------------------------------------------------------------------------
------------------------------------------------------------------------
-11h9--9--9-11-12--11/1211-11--7/97-7-6/76-6-7-9--4/64--11-11-12--------
---------------------------------------------------------------------11-
------------------------------------------------------------------------
------------------------------------------------------------------------
 
fast	G#aug	      G#aug	 	  
----------------------------------------------------------------
----------------------------------------------------------------
-12-11-12----12-11-12----12-11---11/1211--6/7-6-7-9-6-7-9-6-9-6-
----------11----------11----------------------------------------
----------------------------------------------------------------
----------------------------------------------------------------

--------------
--------------
-11/911/911~~-
--------------
--------------
--------------

Outro:
	      Fast		   Fast        C      Am  
--------------------------------------------------------------------------
--------------------------------------------------------------------------
-12---11----11-11---------6---6-6--------------7-------6----12-----12--11-
--------------9--------7-------7-------------7----7---7---------9---------
-------------------------------------------0--------7---------------------
--------------------------------------------------------------------------

							  F
------------------------------------------------------------------5-
------------------------------------------------------------------5-
----12--11-------------9-----------------7--------6------------7--6-
-9----------7--11---7-----11--7--5---7---------7----------7-------7-
--------------------------------------------5---------5-----------7-
------------------------------------------------------------------5-

Комментарий автора:

Intro order:
4 times Riff1
1 time  Riff2
1 time  Riff3

1 time  Riff1
1 time  Riff2
1 time  Riff3
 
 

Видео