A-Ha - Velvet, аккорды

Прокрутка
Тональность
Шрифт
100
Intro:
 C          G    Dm      F      C    G           Dm    F  strum several times
---0---------------1---------------0---------------1---1-|
-1---0-1-0h1p0-----------------------------------------1-|
---------------0---------------------0-2-2/4-0-0-------2-|
-----------------3---2-3-2h3p2-------------------3---3-3-|
-------------------------------3-3-----------------------|
---------------------------------------------------------|

Riff:
C G        Dm  F    C G       Dm  F
----5/7-3--0p1-----|----5/7---0p1---|
-------------------|----------------|
-------------------|----------------|
-------------------|----------------|
-------------------|----------------|
-------------------|----------------|

Melody:
  C   G       Dm      F      C  G     Dm      F
--8-7-8-7h8p7---------------------5-7-------------------|
--------------8-6-5-6-5h6p5-----8-----8-6-5-6-5h6p5-----|
----------------------------5-5---------------------5-5-|
--------------------------------------------------------|
--------------------------------------------------------|
--------------------------------------------------------|

            C     G           Dm  F
            Her skin is like velvet
            C     G           Dm  F
            Her face cut from stone
            C     G           Dm  F
            Her eyes when she's smiling
            C     G           Dm F
            Will never reach home
            F                 C G Dm F (with melody)
            But hear how she sings

            C     G           Dm  F
            Her touch would be tender
            C     G           Dm F
            Her lips would be warm
            C     G           Dm  F
            But when we're together
            C     G      Dm F
            I'm always alone
            F                 C G Dm F (with melody)
            But hear how she sings
            F                 C G Dm F (with melody)
            But hear how she sings
            F              C G Dm F (with melody)
            Hear how she sings

            C     G           Dm  F
            Her skin is like velvet
            C     G           Dm F
            So I went to her home
            C     G           Dm  F
            Her place like a palace
            C     G           Dm  F
            With things you can't own
            C     G           Dm F
            Her skin is like velvet
            F                 C G Dm F (with melody)
            And hear how she sings
            F              C G Dm F (with melody)
            Hear how she sings...
 
 

Видео