A-Ha - Velvet, аккорды

Прокрутка
Тональность
Шрифт
100
   G D Am
E|--3--2--x--|
B|--3--3--1--|
G|--0--2--2--|
D|--0--x--2--|
A|--2--x--x--|
E|--3--x--x--|
 
Intro:
   G     D        Am  C      Repeat:
E|-------3---2--3h--3--------------------|
B|-------3---3---------2--1----0--1--0---|
G|----0------2------------2----0r------0-|
D|------------------------2--------------|
A|-----------------------------3r--------|
E|--3------------------------------------|
 
 

Видео