ABBA - Money Money Money (btab), аккорды

Прокрутка
Тональность
Шрифт
100
Intro (end):
  *   .   .   .   *   .   .   .   
|---------------------------------|
|---7---7---7---7---7---7---7---7-|
|---------------------------------|
|-5---5---5---5---5---5---5---5---|

Verse:
  *   .   .   .   *   .   .   .    *   .     .   .   *   .   .   .
|-------------------------------------------------------------------|
|---7---7---7---7---6---6---6---6-----___-------------7---7---7---7-|
|--------------------------------------5h7---5---7------------------|
|-5---5---5---5---4---4---4---4----0-0-----0-------0-5---5---5---5--|

  *   .   .   .   *   .   .   .    *   .     .   .   *   .   .   .
|-------------------------------------------------------------------|
|---7---7---7---7---6---6---6---6-----___-------------7---7---7---7-|
|--------------------------------------5h7---5---7------------------|
|-5---5---5---5---4---4---4---4----0-0-----0-------0-5---5---5---5--|

  *     .   .     .   *     .   .     .     *   .   .     .   *     .    .   .
|---------------------------------------___------------------------------------|
|-----7---7-----7---7-----7---7---------53-----3---------3-3-----3---3---------|
|-___-------___-------___-------___-----------------___-------___-------/8---7-|
|-3/5---5---3/5---5---3/5---5---3/5---3-----1-----1-0h1-------0h1---1----------|

                                         7/8     9/8     
  *   .   .   .   *   .   .   .   *       *       *   .   .   .   .
|-------7-------7---8---8---8---8---------------------------------|
|-----------------------------------------------------------------|
|-5---5---5---5---6---6---6---6-------------------7-8-5-7-3-5-2-3-|
|-----------------------------------------------------------------|

Chorus:
  *   .   .   .   *   .   .   .   *   .   .       .   *   .   .   .
|--------------------------------------------------------------------|
|--------------------------------------------------------------------|
|-----------------------------------------___-___--------------------|
|-5-7-8-5-7-8-----7-5-7-8-------------7-5-7/8-7/8---5----------------|

  *   .   .   .   *   .   .   .   *   .   .       .   *   .   .   .
|--------------------------------------------------------------------|
|--------------------------------------------------------------------|
|-----------------------------------------___-___-----------------3--|
|-5-7-8-5-7-8-----7-5-7-8-------------7-5-7/8-7/8---5----------5---5-|

  *   .   .   .   *     .   .     .   *    .    .     .        *   .   .   .
|-----------------------------------------------------_____------------------|
|-------------------___-----___-------7---9---10---12/13-12------------------|
|-5-5-3---5---3-----5/7-5---5h7---5------0----0-----0------------------8---7-|
|-------5-------5---------7---------7----------------------------------------|

  *   .   .   .   *   .   .       .   *   .   .   .          * 
|-------------------------------------------------____________-|
|---------------------------------------------------10-10/1413-|
|---------------5--------/75/75/7---------------7--------------|
|-5-7-8-5-7-8-------------------------5------------------------|

 *   .   .   .           *   .   .           .   *   .   .   .   *   .   .   .
|------------_____________-------_____-_____-----------------------------------|
13------------10-10/1312-------12/14-12/14------7---7---7---7---7---7---7---7--|
|------------8-----------------------------------------------------------------|
|------------------------------------------------5---5---5---5---5---5---5---5-|

Verse:
  *   .   .   .   *   .   .   .   *   .     .   .   *   .   .   .
|-------------------------------------------------------------------|
|---7---7---7---7---6---6---6---6-----___-------------7---7---7---7-|
|-------------------------------------5h7---5---7-------------------|
|-5---5---5---5---4---4---4---4---0-0-----0-------3-5---5---5---5---|

  *   .   .   .   *   .   .   .   *     .     .   .   *   .   .   .
|--------------------------------------------------------------------|
|---7---7---7---7---6---6---6---6/15---___-------------7---7---7---7-|
|---------------------------------------5h7---5---7------------------|
|-5---5---5---5---4---4---4---4-------0-----0-------3-5---5---5---5--|

  *   .   .     .   *     .   .     .   *   .   .     .   *   .   .   .
|-----------------------------------------------------------------------|
|-----7-------7---7-----7---7-----7---5-----3-3-------------------------|
|---------___-------___-------___---------------___--------------/8---7-|
|-3/5---5-3/5---5---3/5---5---3/5---3---1-------0h1-------0-------------|

                                 7/8            9/8
  *   .   .   .   *   .   .   .   *    .   .   . *   .   .   .   
|-------7---7---7---8---8---8---8-9-10-7-9-5-7-------------------|
|----------------------------------------------8-----------------|
|-5---5---5---5---6---6---6---6------------------7-8-5-7-3-5-2-3-|
|----------------------------------------------------------------|

Chorus:
  *   .   .   .   *   .   .   .   *   .   .       .   *   .   .   .
|--------------------------------------------------------------------|
|--------------------------------------------------------------------|
|-----------------------------------------___-___--------------------|
|-5-7-8-5-7-8-----7-5-7-8-------------7-5-7/8-7/8---5----------------|

  *   .   .   .   *   .   .   .   *   .   .       .   *   .   .   .
|--------------------------------------------------------------------|
|--------------------------------------------------------------------|
|-----------------------------------------___-___-----------------3--|
|-5-7-8-5-7-8-----7-5-7-8-------------7-5-7/8-7/8---5----------5---5-|

  *   .   .   .   *     .   .     .   *    .    .     .        *   .   .    .
|-----------------------------------------------------_____--------------------|
|-------------------___-----___-------7---9---10---12/13-12---------13---------|
|-5-5-3---5---3-----5/7-5---5h7---5------0----0-----0--------------------------|
|-------5-------5---------7---------7---------------------------------------10-|

  *   .   .   .   *   .   .       .   *              *   .   .   .
|------------------------------------------------------------------|
|------------------------------------------------------------------|
|---------------5--------/75/75/7------------------------------8---|
|-5-7-8-5-7-8-------------------------5----------------------------|

Chorus:
  *   .   .   .   *   .   .   .   *   .   .   .   *   .   .   .
|----------------------------------------------------------------|
|----------------------------------------------------------------|
|-------------------------------------___-___--------------------|
|-6-8-9-6-8-9-----8-6-8-9---------8-6-8/9-8/9---6----------------|

  *   .   .   .   *   .   .   .   *   .   .   .   *   .   .   .
|----------------------------------------------------------------|
|----------------------------------------------------------------|
|-------------------------------------___-___-----------------4--|
|-6-8-9-6-8-9-----8-6-8-9---------8-6-8/9-8/9---6----------6---6-|

  *   .   .   .   *     .   .     .   *   .    .    .    *   .   .   .
|-----------------------------------------------------------------------|
|-------------------___-----___-------8---10---11---13------------------|
|-6-6-4---6---4-----6/8-6---6h8---6--------------------8---------9---8--|
|-------6-------6---------8---------8-----------------------------------|

  *   .   .   .   *   .   .     . 
|----------------------------------|
|-------------------------_____----|
|---------------6---------86/8-----|
|-6-8-9-6-8-9----------------------|

  *   .   .   .       *   .   .     .         *   .    .      .  
|---------------________------------____________--------------|
|---------------11/1514--------------8-11/1413------/15/15----|
|-------------8---------------------9-------------------------|
|-6-----------------------------------------------------------|
 
 

Видео