Запрещают песни Цоя, Агата Кристи, Наутилус Помпилиус, Зиверт
Отвечаем в отдельной теме

AC/DC - Badlands, аккорды

Прокрутка
Тональность
Шрифт
100
Intro+verse lead verse:
E|------------|-----------|------------------------------------|
B|------------|-----------|------------------------------------|
G|--0-5-0-3-0-|--G2-------|--0-5-0-3-0---0-5-0-3-0----------0--|
D|--0-5-0-3-0-|--REAPEATS-|--0-5-0-3-0---0-5-0-3-0-------------|
A|------------|--ON-INTRO-|-------------------------3---h5-----|
E|------------|-----------|------------------------------------|
 
Pre-chorus:
E|------------------------|--------------------|----------------------|
B|------------------------|--------------------|----------------------|
G|---5---5-5-5-5--5-3-2-0-|--5--5-5-5-5--5-3-2-|--5--5-5-5-5--5-3-2-0-|
D|---5---5-5-5-5--5-3-2-0-|--5--5-5-5-5--5-3-2-|--5--5-5-5-5--5-3-2-0-|
A|------------------------|--------------------|----------------------|
E|------------------------|--------------------|----------------------|

E|---------------------------------|
B|---------------------------------|
G|--5--5-5-5-5--5-7--77777777777-7-|
D|--5--5-5-5-5--5-7--77777777777-7-|
A|---------------------------------|
E|---------------------------------|

Chorus: same as intro+verse
E|------------|-----------|------------------------------------|
B|------------|-----------|------------------------------------|
G|--0-5-0-3-0-|--G2-------|--0-5-0-3-0---0-5-0-3-0----------0--|
D|--0-5-0-3-0-|--REAPEATS-|--0-5-0-3-0---0-5-0-3-0-------------|
A|------------|--ON-INTRO-|-------------------------3---h5-----|
E|------------|-----------|------------------------------------|

Before solo: x3
E|--------------------------------------|---------------------------------|
B|--------------------------------------|---------------------------------|
G|--0-------3-3---3-5--5-5-5---3-3-3-3--|--0-------3-3--3-5--555555555555-|
D|--0-------3-3---3-5--5-5-5---3-3-3-3--|--0-------3-3--3-5--555555555555-|
A|--X-------1-1---1-3--3-3-3---1-1-1-1--|--X-------1-1--1-3--333333333333-|
E|--3--3-0------------------------------|--3--3-0-------------------------|
 
 

Видео