Запрещают песни Цоя, Агата Кристи, Наутилус Помпилиус, Зиверт
Отвечаем в отдельной теме

AC/DC - Can't Stop Rock N Roll, аккорды

Прокрутка
Тональность
Шрифт
100
Intro/Verse Riff:
E|-----------------|
B|-----------------|
G|-2-----7--5--2-5-|
D|-2--5--7--5--2-5-|
A|-0--5--5--3--0-3-|
E|----3------------|

Chorus:
E|------------------------------|
B|--------------------5-4-3-3---|
G|-7--7---7--7--7--7------------|
D|-0--0---0--0--0--0------------|
A|-5--5---5--5--3--3------------|
E|------------------------------|

Here's an easier version. However, I don't
recommend you use it. You should try the more
accurate on on the top:
E|------------------------------|
B|--------------------5-4-3-3---|
G|-7--7---7--7--5--5------------|
D|-0--0---0--0--0--0------------|
A|-5--5---5--5--3--3------------|
E|------------------------------|

Solo: 
|-----------15----15h17(18)--17(18)--|
|-15(17)~~--15(17)-----------------------|
|----------------------------------------|
|----------------------------------------|
|----------------------------------------|
|----------------------------------------|

|--------------------------------------------------------|
|-------5(6)----5(6)---5(6)---8(10)-(10)-5-8---5---------|
|-------5(6)----5(6)---5(6)------------------7---5---0---|
|-7-6-5------7-------7-----------------------------7-----|
|-----------------------------------------------------7/-|
|--------------------------------------------------------|

|--------------------------------------------------------|
|-------------------------------10--8-----5--------------|
|--5---7(9)~~-7(9)-7(9)-7(9)-----9--9--5--5--------------|
|----7-----------------------------------------7----7~~--|
|------------------------------------------------7-------|
|--------------------------------------------------------|

|------------------12----12-12-----------15----15-15----15--15----15-------|
|-8(10)----5(6)/---13(15)---13(15)-------15(17)---15(17)----15(17)--p13-15-|
|------5---5(6)/------------------14-12/---------------------------------14|
|--------7-----------------------------------------------------------------|
|--------------------------------------------------------------------------|
|--------------------------------------------------------------------------|

|-16(17)-15---16(17)-15---16(17)-15---16(17)-15---------------------|
|-------------------------------------------------13---15(17)-15----|
|-----------------------------------------------14--14----------14--|
|-------------------------------------------------------------------|
|-------------------------------------------------------------------|
|-------------------------------------------------------------------|

|-------15--------15------------15---15---15---|
|-15(17)---15(17)------15(17)--(17)-(17)-(17)--|
|----------------------------------------------|
|----------------------------------------------|
|----------------------------------------------|
|----------------------------------------------|
 
 

Видео