Запрещают песни Цоя, Агата Кристи, Наутилус Помпилиус, Зиверт
Отвечаем в отдельной теме

AC/DC - Are You Ready (btab), аккорды

Прокрутка
Тональность
Шрифт
100
Intro:
G:----------------|----------------|----------------|----------------|
D:----------------|----------------|----------------|----------------| x2
A:----------------|----------------|----------------|----------------|
E:----------------|----------------|----------------|----------------|
 
G:----------------|----------------|----------------|----------------|
D:----------------|3---------------|5---------------|----------------|
A:5---------------|----------------|----------------|5---------------|
E:----------------|----------------|----------------|----------------|

G:----------------|----------------|
D:----------------|----------------|
A:5---------------|----------------|
E:----------------|----------------|

Verse:
G:----------------|----------------|
D:----------------|----3-----------| x8
A:5-5-5-3-3-5---5-|--------5---3---|
E:----------------|----------------|

Pre-Chorus:
G:----------------|----------------|----------------|----------------|
D:----------------|3---------------|5---------------|----------------| x2
A:5---------------|----------------|----------------|5---------------|
E:----------------|----------------|----------------|----------------|

Chorus:
G:----------------|----------------|----------------|----------------|
D:----------------|----------------|----------------|----------------| x2
A:5-5-5-3-3-5-5---|3-3-3-2-2-3-----|2-2-2-0-0-2-2---|3-3-3-2-2-3-----|
E:----------------|----------------|----------------|----------------|

G:----------------|
D:----------------|
A:----------------|
E:----------------|

Verse:
G:----------------|----------------|
D:----------------|----3-----------| x6
A:5-5-5-3-3-5---5-|--------5---3---|
E:----------------|----------------|

G:----------------|----------------|----------------|----------------|
D:----------------|3---------------|5---------------|----------------|
A:5---------------|----------------|----------------|5---------------|
E:----------------|----------------|----------------|----------------|

G:----------------|----------------|----------------|----------------|
D:----------------|----------------|----------------|----------------| x2
A:5-5-5-3-3-5-5---|3-3-3-2-2-3-----|2-2-2-0-0-2-2---|3-3-3-2-2-3-----|
E:----------------|----------------|----------------|----------------|

G:----------------|----------------|
D:----------------|----------------|
A:----------------|5--------------|
E:----------------|----------------|

Solo:
G:----------------|----------------|
D:----------------|----3-----------| x4
A:5-5-5-3-3-5---5-|--------5---3---|
E:----------------|----------------|

G:----------------|----------------|----------------|----------------|
D:----------------|3---------------|5---------------|----------------| x2
A:5---------------|----------------|----------------|5---------------|
E:----------------|----------------|----------------|----------------|

G:----------------|----------------|----------------|----------------|
D:----------------|----------------|----------------|----------------|
A:5-5-5-3-3-5-5---|3-3-3-2-2-3-----|2-2-2-0-0-2-2---|3-3-3-2-2-3-----|
E:----------------|----------------|----------------|----------------|

G:----------------|----------------|----------------|----------------|
D:----------------|----3-----------|----------------|----------------| x7
A:5-5-5-3-3-5-5-5-|--------5---3---|----------------|5---3---2---0---|
E:----------------|----------------|----------------|----------------|

G:----------------|
D:----------------|
A:------------5---|
E:3---------------|
 
 

Видео