Запрещают песни Цоя, Агата Кристи, Наутилус Помпилиус, Зиверт
Отвечаем в отдельной теме

AC/DC - Moneytalks, аккорды

Прокрутка
Тональность
Шрифт
100
Intro:
G|--------------------------------------
D|--------------------------------------
A|--------------------------------------
E|3--3--3--3--3--3--3--3--3--3--3--(0)--

Verse & Guitar Solo
G|------------------------------------
D|------------------------------------
A|------------------------------------
E|3-3-3-3-3-3-3-3-3-3-3-3-3-3-3-3-----

G|------------------------------------
D|------------------------------------
A|5-5-5-5-5-5-5-5-5-5-5-5-5-5-5-5-----
E|------------------------------------

G|------------------------------------
D|------------------------------------
A|3-3-3-3-3-3-3-3-3-3-3-3-3-3-3-3-----
E|------------------------------------

Chorus:
G|-------------------------
D|-------------------------
A|--------3--2-0-----------
E|3--3--3--------3-5-3-----

G|-------------------------
D|-------------------------
A|--------------------0----
E|3--3--3--0--0-1-2-3---3--
 
 

Видео