Запрещают песни Цоя, Агата Кристи, Наутилус Помпилиус, Зиверт
Отвечаем в отдельной теме

AC/DC - What's Next To The Moon, аккорды

Прокрутка
Тональность
Шрифт
100
Intro + Verse:
E|----------------------|-------------------|----------------------|
B|----------------------|-------------------|----------------------|
G|----------------------|-------------------|----------------------|
D|----------0--------0--|----2--------------|----------0--------0--|
A|-------------0-----0--|----2--------------|-------------0-----0--|
E|----------------0-----|-------------------|----------------0-----|
 
|-------------------|----------------------|-------------------|
|-------------------|----------------------|-------------------|
|-------------------|----------------------|-------------------|
|----2--------------|----------0--------0--|----2--------------|
|----2--------------|-------------0-----0--|----2--------------|
|-------------------|----------------0-----|-------------------|

|----------------------|-------------------|----------------------|
|----------------------|-------------------|----------------------|
|----------------------|-------------------|----------0--------0--|
|----------0--------0--|----2--------------|-------------0-----0--|
|-------------0-----0--|----2--------------|----------------0-----|
|----------------0-----|-------------------|----------------------|

|-------------------|----------------------|-------------------|
|-------------------|----------------------|-------------------|
|----2--------------|----------0--------0--|----2--------------|
|----2--------------|-------------0-----0--|----2--------------|
|-------------------|----------------0-----|-------------------|
|-------------------|----------------------|-------------------|

|----------------------|-------------------|----------------------|
|----------------------|-------------------|----------------------|
|----------------------|-------------------|----------------------|
|----------0--------0--|----2--------------|----------0--------0--|
|-------------0-----0--|----2--------------|-------------0-----0--|
|----------------0-----|-------------------|----------------0-----|

Chorus:
|-------------------|------------------|------------------------|
|-------------------|------------------|----------3----3--------|
|-------------------|------------------|-------2--2----2--2-----|
|----2--------------|------------------|----2--2--0----0--2--2--|
|----2--------------|------------------|----2--4----------4--2--|
|-------------------|------------------|------------------------|

|------------------|------------------------|------------------|
|------------------|----------3----3--------|------------------|
|------------------|-------2--2----2--2-----|------------------|
|------------------|----2--2--0----0--2--2--|------------------|
|------------------|----2--4----------4--2--|------------------|
|------------------|------------------------|------------------|

|------------------------|------------------|------------------------|
|----------3----3--------|------------------|----------3----3--------|
|-------2--2----2--2-----|------------------|-------2--2----2--2-----|
|----2--2--0----0--2--2--|------------------|----2--2--0----0--2--2--|
|----2--4----------4--2--|------------------|----2--4----------4--2--|
|------------------------|------------------|------------------------|

|----------------------|-------------------|------------------|
|----------------------|-------------------|------------------|
|----------------------|-------------------|------------------|
|----------0--------0--|----2--------------|------------------|
|-------------0--0--0--|----2--------------|------------------|
|----------------0-----|-------------------|------------------|

|------------------|------------------------|------------------|
|------------------|----------3----3--------|------------------|
|------------------|-------2--2----2--2-----|------------------|
|------------------|----2--2--0----0--2--2--|------------------|
|------------------|----2--4----------4--2--|------------------|
|------------------|------------------------|------------------|

Outro:
|------------------|-------------------------|-----------------------|
|------------------|-------------------------|-----------------------|
|------------------|-----------2----------0--|-----------------------|
|------------------|-----0--2-------2--------|----0-----4----2-------|
|------------------|--0----------------0-----|-------0----------4----|
|------------------|-------------------------|-----------------------|
 
 

Видео