Запрещают песни Цоя, Агата Кристи, Наутилус Помпилиус, Зиверт
Отвечаем в отдельной теме

AC/DC - The Razors Edge, аккорды

Прокрутка
Тональность
Шрифт
100
Intro:
E|--------------|------------------------------------------------------|
B|--------1h3/5-|------0-1-3---0-1-----0-------------------------------|
G|--------------|------------2-----0h2----p0-2-----0-------------------|
D|--------------|------------------------3p----2-3---0h2h3p2p0-2-0-----|
A|--------------|--------------------------------------------------2-2-|
E|-0------------|------------------------------------------------------|

E|---------------------------------|
B|---------------------------------|
G|-------------------------------2-|
D|-0-----------0---------------0-2-|
A|---3p2p0-------3-----0----3~~--0-|
E|---------0h1-----1h3---1---------|

Rhythm figure 1:
E|-0---0------0-------|---0------0--------0------0--------0------0-----|
B|-0---0------0-------|---0------0--------0------0--------0------0-----|
G|-4---4h5p2--2h4h5p4-|---4h5p2--2h4h5p4--4h5p2--2h4h5p4--4h5p2--2h4h5-|
D|--------------------|------------------------------------------------|
A|--------------------|------------------------------------------------|
E|--------------------|------------------------------------------------|

Rhythm figure 2: x20
E|-----0-----0-----0-----0-----0-|-----0-----0-----0-----0-----0-|
B|-----0-----0-----0-----0-----0-|-----0-----0-----0-----0-----0-|
G|-2h4---4h5---2h4---4h5---2h4---|-2h4---4h5---2h4---4h5---2h4---|
D|-------------------------------|-------------------------------|
A|-------------------------------|-------------------------------|
E|-------------------------------|-------------------------------|

Rhythm figure 3:
E|----------------------|----------------------------|------------------------|
B|----------------------|----------------------------|------------------------|
G|----------------------|----------------------------|-4----4/5---2--2/4------|
D|----------------------|----------------------------|----------0-------------|
A|----------------------|-(X)-(15)XX--(15)XXX--------|------------------------|
E|-(X)-(X)-(X)-(X)--(X)-|-(X)-(15)XX--(15)XXX--------|------------------------|

Rhythm figure 4:
Angus Plays This Part | Malcolm Plays this Part
E|--------------------|------------------------|
B|--------------------|------------------------|
G|--------------------|------------------------|
D|-2---2---2----------|----2---2---2-----------|
A|-2---2---2--0h2p0---|----2---2---2---0h2p0---|
E|-0---0---0--------3-|-0--0---0---0---------3-|

E|--------------------|--------------------|
B|------------2(3)2p0-|------------2(3)2p0-|
G|------------2(3)2p0-|------------2(3)2p0-|
D|-2---2---2----------|-2---2---2----------|
A|-2---2---2----------|-2---2---2----------|
E|-0---0---0----------|-0---0---0----------|

Angus' Part Continued | Malcolm's Part Continued
E|--------------------|----------------------|
B|--------------------|----------------------|
G|--------------------|----------------------|
D|-2---2---2----------|----2---2---2---------|
A|-2---2---2--0h2p0---|----2---2---2-0h2p0---|
E|-0---0---0--------3-|-0--0---0---0-------3-|

E|--------------------|--------------------|
B|------------2(3)2p0-|------------2(3)2p0-|
G|------------2(3)2p0-|------------2(3)2p0-|
D|-2---2---2----------|-2---2---2----------|
A|-2---2---2----------|-2---2---2----------|
E|-0---0---0----------|-0---0---0----------|

Figure 5 Angus' Part (x8)| Malcolm's Part (x2)
E|-------------------------|----------------------------------------3-|
B|-----8-----8-----8-----8-|-3--------------------------------------3-|
G|-5h7---5h7---5h7---5h7---|-2--------------------------------------0-|
D|-------------------------|-0--------------------------------------0-|
A|-------------------------|-0----------------------------------------|
E|-------------------------|----------------------------------------3-|

Guitar Solo (Malcolm Plays RHYTHM FIGURЕ 2 and 3 throughout)
E|--------------------------------|-----------------------|
B|-8-(10)--8-7-5-5h7p5------------|-----------------------|
G|---------------------7-5--------|TR---------------------|
D|-------------------------7-7~~~~|-5-(7)---5h7~~~~-2-2-0-|
A|--------------------------------|-----------------------|
E|--------------------------------|-----------------------|

E|----------------------------|
B|--------------5-5-----------|
G|-7-9-9~~-7(9)-----7(9)-7(9)-|
D|----------------------------|
A|----------------------------|
E|----------------------------|

E|-----|-10------10---10---10-----------10----------------|------|
B|-5-8-|-10(12)-(12)-(12)-(12)-[12]10p8-10(12)10----------|------|
G|-----|--------------------------------------------------|-2(4)-|
D|-----|--------------------------------------------------|------|
A|-----|---------------------------------------------(2)/-|------|
E|-----|--------------------------------------------------|------|

E|----------------------------|------0-3------------------------------0h3p2p0-|
B|----------------------------|---------3p2p0---------------------------------|
G|-2(4){2}{4}{2}{4}{2}0---{2}-|-2(4)----------3p2p0---------------------------|
D|----------------------2-----|---------------------3p2p0---------------------|
A|----------------------------|--------------------------3p2p0----------------|
E|----------------------------|--------------------------------3-(5)3---------|

E|----------------------------------------|------------------------|
B|-3p2p0----------------------------------|------------------------|
G|-------2h4p2p0--------------------------|------------------------|
D|---------------2h4p2p0------------------|-------5---7-5----------|
A|-----------------------2h4p2p0---5--(6)-|-7-7~~~--7--------------|
E|-------------------------------3--------|------------------5p3p0-|

E|-----------------------------------------------------------------------|
B|------------------------------------8-(10)-10(12)(11)(12)(11)-(11)(12)-|
G|------------------------------7-9-9------------------------------------|
D|-7hX-5hX-7-(8)7p5-7hX-5hX-7h9------------------------------------------|
A|-----------------------------------------------------------------------|
E|-----------------------------------------------------------------------|

E|--0h12p0-15-14p12-14p12------------------------------------------------------|
B|-----------------------15p12-14p12h14p12-------------------------------------|
G|------------------------------------------15p12h14p12---12h14p12-------------|
D|------------------------------------------------------14---------14-12-------|
A|-----------------------------------------------------------------------14p12-|
E|-----------------------------------------------------------------------------|

E|---------------------------------0-|------|
B|---------------------------------0-|------|
G|-----------------------------------|-2(4)-|
D|-----------------------------------|------|
A|-10h12p10-10(12)10(12)10-----------|------|
E|--------------------------/17------|------|

E|------------------------------------------|
B|------------------------------------------|
G|-5p4p2-5p4p2-5p4p2-5p4p2----------/14(16)-|
D|-------------------------2~~~~------------|
A|------------------------------------------|
E|------------------------------(3)---------|

E|-12------------------------------------------------------------|
B|----12-15---------------------------------------------------12-|
G|----------14-14(16)(16)(16)(15)(16)(15)(16)(15)(16)14p12-------|
D|---------------------------------------------------------14----|
A|---------------------------------------------------------------|
E|---------------------------------------------------------------|

E|-12---------------------|------------------------------|
B|----12------------------|------------------------------|
G|-------12(13)~~~~~------|-14-12-----12-14-12----12-----|
D|--------------14~~---12-|-------14~----------14----14~~|
A|------------------------|------------------------------|
E|------------------------|------------------------------|

E|------------------------------|
B|-15(17)-15(17)-15(17)-15(17)--|
G|------------------------------|
D|------------------------------|
A|------------------------------|
E|------------------------------|

E|---|---------------12-12----|-------------------------------------15--|
B|---|-----------/12-------12-|-15(17)-15(17)-15(17)(17)~~~~15(17)------|
G|---|------------------------|-----------------------------------------|
D|-X-|-XXXX-------------------|-----------------------------------------|
A|-X-|-XXXX-------------------|-----------------------------------------|
E|---|------------------------|-----------------------------------------|

E|---------15---------------15----15-----15(17)---|
B|-15-(17)----15(17)-15(17)----15(17)-------------|
G|------------------------------------------------|
D|-------------------------------------0-0--------|
A|------------------------------------------------|
E|------------------------------------------------|

E|-15-12-------------------------|-------------|----------------------------|
B|-------15--------------2(3)2p0-|-/3--2(3)2p0-|----------------------------|
G|-------------14(16)~~~~2(3)2p0-|-/4--2(3)2p0-|-2h3p2p0-2(4)-0-{2}{4}-2(4)-|
D|----------14-------------------|--#----------|----------------------------|
A|-------------------------------|--#----------|----------------------------|
E|-------------------------------|--#----------|----------------------------|

E|----------------------------------------------------0-------------------|---|
B|--------------------------------------------------0---0-3---------------|---|
G|-(3)-2-4h5p4p2-5p4p2-2h4-2h4-2h4-2~~~~~~2(4)2-(4)---------X-2h4p2p0-2-0-|---|
D|------------------------------------------------------------------------|-2-|
A|------------------------------------------------------------------------|-2-|
E|------------------------------------------------------------------------|-0-|
 
 

Видео