Запрещают песни Цоя, Агата Кристи, Наутилус Помпилиус, Зиверт
Отвечаем в отдельной теме

AC/DC - Flick Of The Switch, аккорды

Прокрутка
Тональность
Шрифт
100
--------------------------------------------------------------------------|
------------------8------8-----------8b10--8b10--8b10--8b10---------------|
------------------7b9--5-7-5-5-7------------------------------------------|
---7--7--5-----------------------7----------------------------------------|
-------------5------------------------------------------------------------|
--------------------------------------------------------------------------|

-5------------------------------------------------------------------------|
---5-8---5----------------------------------------------------------------|
-------7---5-7------5-5--5p2p0-5p2p0-5p2p0-5p2p0-4b5----------------------|
---------------7----------------------------------------------------------|
--------------------------------------------------------------------------|
--------------------------------------------------------------------------|

----------------------------------------17-15-----------------------------|
--8b10--8b10--10b12------------17-15b16-------17-15-17-16r15--------------|
-------------------------14h17--------------------------------------------|
---------------------14x--------------------------------------------------|
--------------------------------------------------------------------------|
--------------------------------------------------------------------------|
Oh! Oh! Oh!

--------17--------17----------17----------17------------------------------|
--------17--20b22----20-20b22----20-20b22----20-20b22---------------------|
-17-14--17----------------------------------------------------------------|
--------------------------------------------------------------------------|
--------------------------------------------------------------------------|
--------------------------------------------------------------------------|

-17----------17---------------20b22r20------------------------------------|
----17----20--------------------------------------------------------------|
-------19-------19b21r19-17-----------------------------------------------|
--------------------------------------------------------------------------|
--------------------------------------------------------------------------|
-----------------------------------------/17------------------------------|

--------------------------------------------------------------------------|
--------------------------------------------------------------------------|
--------------------------------------------------------------------------|
--------------19-19-19----------------------------------------------------|
--------------19-19-19----------------------------------------------------|
--------------------------------------------------------------------------|
Flick the switch!

--------------17----17----17----17----17----17----17----------------------|
--------------20b22-20b22-20b22-20b22-20b22-20b22-20b22-------------------|
--------------------------------------------------------------------------|
--------------------------------------------------------------------------|
--------------------------------------------------------------------------|
--------------------------------------------------------------------------|
 
 

Видео