Запрещают песни Цоя, Агата Кристи, Наутилус Помпилиус, Зиверт
Отвечаем в отдельной теме

AC/DC - Back In Black, аккорды

Прокрутка
Тональность
Шрифт
100
E|--------------|
B|--------------|
G|--------------|
D|--X-X-X-X-X-X-|
A|--X-X-X-X-X-X-|
E|--X-X-X-X-X-X-|

Main Riff:
E|------------------|3p0-----------|------------------|-----------------|
B|-----3-3-3--------|----3---------|-----3-3-3--------|-----------------|
G|-----2-2-2--2-2-2-|------2h3-2p0-|-----2-2-2--2-2-2-|-----------------|
D|--2--0-0-0--2-2-2-|--------------|--2--0-0-0--2-2-2-|-----------------|
A|--2---------0-0-0-|--------------|--2---------0-0-0-|2---2---2---2----|
E|--0---------------|--------------|--0---------------|--4---5---6---7--|

Chorus: x2 x2
E|--------------|-3-------------|--------------|---------------|
B|--------------|-3--3----------|--------------|--3-3-3--3-3-3-|
G|--2-----4-2-4-|-0--2--2----2--|--2-----4-2-4-|--2-2-2--0-0-0-|
D|--2--2--4-2-4-|----0--2--5-2--|--2--2--4-2-4-|--0-0-0--------|
A|--0--2--2-0-2-|-------0--5-0--|--0--2--2-0-2-|---------------|
E|-----0--------|----------3----|-----0--------|---------------|

Simplified Solo: x2
E|----------------|--------------------------------------------5---5-5~5------|
B|----------------|------8---------------8---8---8---8---8---8---8-------8-5~-|
G|------------6~--|--7-9---9-7---9~-7--9---9---9---9---9----------------------|
D|----------------|------------7----------------------------------------------|
A|--7~5~4~2-4-----|-----------------------------------------------------------|
E|----------------|-----------------------------------------------------------|

E|------------------------------------------------------|
B|------------------------------------------------------|
G|--7-9-7-9-7-9-7-9-7-9--9-7-9~-7-6-7~-6-4-6~-4-2-4-2-4-|
D|------------------------------------------------------|
A|------------------------------------------------------|
E|------------------------------------------------------|

Solo No.2: x4 x2
E|---------------------------|--------------------------|
B|---------------------------|--------------------------|
G|---------------------------|--------------------------|
D|---------------------------|----5-4-2-4---2---2---2---|
A|----5-4-2-4---2---2---2----|--0---------4---5---6---7-|
E|--0---------4---5---6---7--|--------------------------|

E|--------------|
B|--------------|
G|--------------|
D|--X-X-X-X-X-X-|
A|--X-X-X-X-X-X-|
E|--X-X-X-X-X-X-|

Main Riff: x3
E|------------------|3p0-----------|------------------|-----------------|
B|-----3-3-3--------|----3---------|-----3-3-3--------|-----------------|
G|-----2-2-2--2-2-2-|------2h3-2p0-|-----2-2-2--2-2-2-|-----------------|
D|--2--0-0-0--2-2-2-|--------------|--2--0-0-0--2-2-2-|-----------------|
A|--2---------0-0-0-|--------------|--2---------0-0-0-|2---2---2---2----|
E|--0---------------|--------------|--0---------------|--4---5---6---7--|

Chorus:
E|--------------|-3-------------|--------------|---------------|
B|--------------|-3--3----------|--------------|--3-3-3--3-3-3-|
G|--2-----4-2-4-|-0--2--2----2--|--2-----4-2-4-|--2-2-2--0-0-0-|
D|--2--2--4-2-4-|----0--2--5-2--|--2--2--4-2-4-|--0-0-0--------|
A|--0--2--2-0-2-|-------0--5-0--|--0--2--2-0-2-|---------------|
E|-----0--------|----------3----|-----0--------|---------------|

Main Riff:
E|------------------|3p0-----------|------------------|-----------------|
B|-----3-3-3--------|----3---------|-----3-3-3--------|-----------------|
G|-----2-2-2--2-2-2-|------2h3-2p0-|-----2-2-2--2-2-2-|-----------------|
D|--2--0-0-0--2-2-2-|--------------|--2--0-0-0--2-2-2-|-----------------|
A|--2---------0-0-0-|--------------|--2---------0-0-0-|2---2---2---2----|
E|--0---------------|--------------|--0---------------|--4---5---6---7--|

Chorus:
E|--------------|-3-------------|--------------|---------------|
B|--------------|-3--3----------|--------------|--3-3-3--3-3-3-|
G|--2-----4-2-4-|-0--2--2----2--|--2-----4-2-4-|--2-2-2--0-0-0-|
D|--2--2--4-2-4-|----0--2--5-2--|--2--2--4-2-4-|--0-0-0--------|
A|--0--2--2-0-2-|-------0--5-0--|--0--2--2-0-2-|---------------|
E|-----0--------|----------3----|-----0--------|---------------|

Simplified Solo: 
E|----------------|--------------------------------------------5---5-5~5------|
B|----------------|------8---------------8---8---8---8---8---8---8-------8-5~-|
G|------------6~--|--7-9---9-7---9~-7--9---9---9---9---9----------------------|
D|----------------|------------7----------------------------------------------|
A|--7~5~4~2-4-----|-----------------------------------------------------------|
E|----------------|-----------------------------------------------------------|

E|------------------------------------------------------|
B|------------------------------------------------------|
G|--7-9-7-9-7-9-7-9-7-9--9-7-9~-7-6-7~-6-4-6~-4-2-4-2-4-|
D|------------------------------------------------------|
A|------------------------------------------------------|
E|------------------------------------------------------|

Chorus:
E|--------------|-3-------------|--------------|---------------|
B|--------------|-3--3----------|--------------|--3-3-3--3-3-3-|
G|--2-----4-2-4-|-0--2--2----2--|--2-----4-2-4-|--2-2-2--0-0-0-|
D|--2--2--4-2-4-|----0--2--5-2--|--2--2--4-2-4-|--0-0-0--------|
A|--0--2--2-0-2-|-------0--5-0--|--0--2--2-0-2-|---------------|
E|-----0--------|----------3----|-----0--------|---------------|

Solo No.2:
E|---------------------------|--------------------------|
B|---------------------------|--------------------------|
G|---------------------------|--------------------------|
D|---------------------------|----5-4-2-4---2---2---2---|
A|----5-4-2-4---2---2---2----|--0---------4---5---6---7-|
E|--0---------4---5---6---7--|--------------------------|

Chorus:
E|--------------|-3-------------|--------------|---------------|
B|--------------|-3--3----------|--------------|--3-3-3--3-3-3-|
G|--2-----4-2-4-|-0--2--2----2--|--2-----4-2-4-|--2-2-2--0-0-0-|
D|--2--2--4-2-4-|----0--2--5-2--|--2--2--4-2-4-|--0-0-0--------|
A|--0--2--2-0-2-|-------0--5-0--|--0--2--2-0-2-|---------------|
E|-----0--------|----------3----|-----0--------|---------------|

Main Riff:
E|------------------|3p0-----------|------------------|-----------------|
B|-----3-3-3--------|----3---------|-----3-3-3--------|-----------------|
G|-----2-2-2--2-2-2-|------2h3-2p0-|-----2-2-2--2-2-2-|-----------------|
D|--2--0-0-0--2-2-2-|--------------|--2--0-0-0--2-2-2-|-----------------|
A|--2---------0-0-0-|--------------|--2---------0-0-0-|2---2---2---2----|
E|--0---------------|--------------|--0---------------|--4---5---6---7--|
 
 

Видео