Запрещают песни Цоя, Агата Кристи, Наутилус Помпилиус, Зиверт
Отвечаем в отдельной теме

AC/DC - Walk All Over You, аккорды

Прокрутка
Тональность
Шрифт
100
Intro:
E|-------------------------------------|---------------------|
B|-------------------------------------|-------------------3-|
G|-------------------------------------|--0----------------2-|
D|--2----------------------------------|--0----------------0-|
A|--2----------------------------------|--x----------------0-|
E|--0----------------------------0--2--|--3------------------|
 
E|----|
B|----|
G|--2-|
D|--2-|
A|--0-|
E|----|

E|--------------------------------------|--3----------------2-|
B|--------------------------------------|--3----------------3-|
G|--------------------------------------|--0----------------2-|
D|--2-----------------------------------|--0----------------0-|
A|---2----------------------------------|--2----------------0-|
E|---0----------------------------0--2--|--3------------------|

3x Riff:
E|-------------------|-------------------||----------------2-|
B|-------------------|-------------------||---------3------3-|
G|--2----------------|-------------------||---------0------2-|
D|--2----------------|-------------------||--2------0------0-|
A|--0----------------|-------------------||--2------2--------|
E|-------------------|-------------------||--0------3--------|
2x
E|---------------------||---0----0--3----3--2----|-------------------------|
B|-----------3---------||---0----0--3----3--3----|---------2--3--2---------|
G|----2------2--2------||--1----1--0----0--2-----|[email protected]|
D|----2------0--2------||--2----2--0----0--0-----|[email protected]|
A|----0---------0------||---2----2--x------------|----0----0--0--0----0----|
E|---------------------||---0----0--3------------|-------------------------|
3x Out of my way...
E|---0----0--3----3--2----|--2-----------------------||----|
B|---0----0--3----3--3----|--3-------2--3--2--2--2---||----|
G|--1----1--0----0--2-----|--2--2----2--2--2--2--2---||--1-|
D|--2----2--0----0--0-----|--0--2----2--2--2--2--2---||--2-|
A|---2----2--x------------|-----0----0--0--0--0--0---||--2-|
E|---0----0--3------------|--------------------------||--0-|

E|------------------|--3------3------3----|----2------2----2-|
B|------------------|--3------3------3----|----3------3----3-|
G|------------------|--0------0------0----|----2------2----2-|
D|------------------|--0------0------0----|----0------0----0-|
A|------------------|--x------x------x----|------------------|
E|------------------|--3------3------3----|------------------|

E|-------------------|------------------|--3------3------3-|
B|-------------------|------------------|--3------3------3-|
G|--1----------------|------------------|--0------0------0-|
D|--2----------------|------------------|--0------0------0-|
A|--2----------------|------------------|--x------x------x-|
E|--0----------------|------------------|--3------3------3-|

ain't no woman...
E|----2------2----2----|----|
B|----3------3----3----|----|
G|----2------2----2----|--1-|
D|----0------0----0----|--2-|
A|---------------------|--2-|
E|---------------------|--0-|
I ain't lookin...
E|--3------3------3----|----2------2----2----|----|
B|--3------3------3----|----3------3----3----|----|
G|--0------0------0----|----2------2----2----|--2-|
D|--0------0------0----|----0------0----0----|--2-|
A|--x------x------x----|---------------------|--0-|
E|--3------3------3----|---------------------|----|

E|------------------|---------------------|------------------|
B|------------------|---------3-----------|----3-------------|
G|------------------|--2------2------2----|----2------2----2-|
D|------------------|--2------0------2----|----0------2----2-|
A|------------------|--0-------------0----|-----------0----0-|
E|------------------|---------------------|------------------|
Walk all over you
E|-------------------------------------|---------------------|
B|-------------------------------------|--3----------------3-|
G|-------------------------------------|--0----------------2-|
D|--2----------------------------------|--0----------------0-|
A|--2----------------------------------|--2------------------|
E|--0----------------------------0--2--|--3------------------|

E|-------------------------------------|---------------------|
B|-------------------------------------|--3----------------3-|
G|-------------------------------------|--0----------------2-|
D|--2----------------------------------|--0----------------0-|
A|--2----------------------------------|--2------------------|
E|--0----------------------------0--2--|--3------------------|

E|-------------------------------------|---------------------|
B|-------------------------------------|--3----------------3-|
G|-------------------------------------|--0----------------2-|
D|--2----------------------------------|--0----------------0-|
A|--2----------------------------------|--2------------------|
E|--0----------------------------0--2--|--3------------------|

E|---------------------|------------|---------------------|------------------|
B|--2------3------2----|------------|--2------3------2----|----3------2----3-|
G|--2------2------2----|------------|--2------2------2----|----2------2----2-|
D|--2------4------2----|------------|--2------4------2----|----4------2----4-|
A|--0------0------0----|------------|--0-------------0----|-----------0------|
E|---------------------|------------|---------------------|------------------|
 
 

Видео