Запрещают песни Цоя, Агата Кристи, Наутилус Помпилиус, Зиверт
Отвечаем в отдельной теме

AC/DC - You Ain't Got A Hold On Me (intro), аккорды

Прокрутка
Тональность
Шрифт
100
Intro:
E|-------------------|---------------------|-------------------|
B|--3----------------|---------------------|-------------------|
G|--2----------------|---------------------|--0----------------|
D|--0----------------|---------------------|--0----------------|
A|-------------------|------------3--5--3--|-------------------|
E|-------------------|---------------------|--3----------------|
 
|---------------------|-------------------|---------------------|
|---------------------|--3----------------|---------------------|
|---------------------|--2----------------|---------------------|
|---------------------|--0----------------|---------------------|
|---------------0--3--|-------------------|------------3--5--3--|
|------------3--------|-------------------|---------------------|

|-------------------|----------------------|-----------------------|
|-------------------|----------------------|-----------------------|
|--0----------------|----------------------|-----------------------|
|--0----------------|----------------------|-----------------------|
|-------------------|-------------------3/-|--5----5----3--5----3/-|
|--3----------------|----------3--3--5-----|-----------------------|
 
 

Видео