Запрещают песни Цоя, Агата Кристи, Наутилус Помпилиус, Зиверт
Отвечаем в отдельной теме

AC/DC - Have A Drink On Me (btab), аккорды

Прокрутка
Тональность
Шрифт
100
INTRO COME IN ON THЕ 6TН BAR
G|----------------|----------------|----------------|----------------|
D|----------------|----------------|----------------|----------------|
A|----------------|----------------|---------5------|-3---3----------|
E|----------------|-5-5-5-5-5-5-5-5|-5--------------|---5---5--------|

CHORUS: (No lyrics)
G|----------------|----------------|----------------|----------------|
D|----------------|----------------|----------------|----------------|
A|----------------|----------------|----------------|-3---3----------|
E|-5-5-5-5-5-5-5-5|-5-5-5-5-5-5-5-5|-5-5-5-5-5-5-5-5|---5---5--------|

G|----------------|----------------|----------------|----------------|
D|----------------|----------------|----------------|----------------|
A|----------------|----------------|---------5------|-3---3----------|
E|-5-5-5-5-5-5-5-5|-5-5-5-5-5-5-5-5|-5--------------|---5---5--------|

VERSE:
G|----------------|----------------|----------------|----------------|
D|----------------|----------------|----------------|----------------|
A|----------------|----------------|----------------|----------------|
E|-5-5-5-5-5-5-5-5|-5-5-5-5-5-5-5-5|-3-3-3-3-3-3-3-3|-3-3-3-3-3-3-3-3|

G|----------------|----------------|----------------|----------------|
D|----------------|----------------|----------------|----------------|
A|-5-5-5-5-5-5-5-5|-5-5-5-5-5-5-5-5|----------------|----------------|
E|----------------|----------------|-5-5-5-5-5-5-5-5|-5-5-5-5-5-5-5-5|

G|----------------|----------------|----------------|----------------|
D|----------------|----------------|----------------|----------------|
A|----------------|----------------|----------------|----------------|
E|-5-5-5-5-5-5-5-5|-5-5-5-5-5-5-5-5|-3-3-3-3-3-3-3-3|-3-3-3-3-3-3-3-3|

G|----------------|----------------|----------------|----------------|
D|----------------|----------------|----------------|-3--------------|
A|-5-5-5-5-5-5-5-5|-5-5-5-5-5-5-5-5|-5-5-5-5-5-5-5-5|--------3-------|
E|----------------|----------------|----------------|----------------|

BRIDGE1:
G|----------------|----------------|----------------|----------------|
D|----------------|----------------|----------------|----------------|
A|----------------|----------------|----------------|----------------|
E|-5-5-5-5-5-5-5-5|-5-5-5-5-5-5-5-5|-5-5-5-5-5-5-5-5|-5-5-5-5-5-5-5-5|

GUITAR SOLO:
G|----------------|----------------|----------------|----------------|
D|----------------|----------------|----------------|----------------|
A|----------------|----------------|----------------|---5-----5------|
E|-0---0--5-------|-0---0--5-------|-0---0--5-------|----------------|

G|----------------|----------------|----------------|----------------|
D|----------------|----------------|----------------|----------------|
A|----------------|----------------|----------------|----------------|
E|-0---0--5-------|-0---0--5-------|-0---0--5-------|-3-0-3-0--------|

G|----------------|----------------|----------------|----------------|
D|----------------|----------------|----------------|----------------|
A|----------------|----------------|----------------|---5-5-5-5-5-5-5|
E|-0---0--5---5---|-0---0--5---5---|-0---0--5---5---|----------------|


G|----------------|----------------|----------------|----------------|
D|----------------|----------------|----------------|----------------|
A|-5-5-5-5-5-5-5-5|-5-5-5-5-5-5-5-5|-5-5-5-5-5-5-5-5|----------------|
E|----------------|----------------|----------------|-5--------------|

G|----------------|Repeat this bar in time with G|----------------|
D|----------------|drummer until after lyrics   D|----------------|
A|----------------|.."Come On!" then switch     A|----------------|
E|-5----5----5----|to 8th notes                 E|-5-5-5-5-5-5-5-5|

BRIDGE2:
".....Gonna roll around...."
G|----------------|----------------|----------------|----------------|
D|----------------|-5--------------|----------------|-5--------------|
A|--------5-------|--------5-------|--------5-------|--------5-------|
E|-5--------------|----------------|-5--------------|----------------|

OUTRO:
G|----------------|----------------|----------------|----------------|
D|----------------|-5--------------|----------------|----------------|
A|--------5-------|--------5-------|--------5-------|----------------|
E|-5--------------|----------------|-5--------------|----------------|

G|----------------|----------------|----------------|----------------|
D|----------------|----------------|----------------|----------------|
A|--------5-------|----------------|----------------|----------------|
E|-5--------------|----------------|----------------|----------------|

G|----------------|----------------|----------------|----------------|
D|----------------|----------------|----------------|----------------|
A|--------5-------|----------------|----------------|----------------|
E|-5--------------|----------------|----------------|----------------|

G|----------------|----------------|----------------|----------------|
D|----------------|----------------|----------------|----------------|
A|----------------|----------------|----------------|----------------|
E|-5-5-5-5-5------|-5--------------|----------------|----------------|

Intro
Chorus
Verse
Chorus
Bridge 1
Verse
Chorus
Guitar Solo
Bridge 2 x 3
Outro
 
 

Видео