Запрещают песни Цоя, Агата Кристи, Наутилус Помпилиус, Зиверт
Отвечаем в отдельной теме

AC/DC - Dirty Deeds Done Dirt Cheap, аккорды

Прокрутка
Тональность
Шрифт
100
Intro: x4
-----------2-----2------| 
-----0-----2-----3------| 
-----0-----2-----2------| 
-2---0--2--2--2-----2---| 
-2------2-----2-----2---| 
------------------------|

Chorus:
-2--2--2-----2--2--2----| 
-3--3--3-----3--3--3----| 
-2--2--2-----2--2--2----| 
----------2-----------2-| 
----------2-----------2-|
------------------------|

"Dirty Deeds..."
--------------------2---| 
-2----2-0-2---------3---| 
-2----2-0-2---------2---| 
-2----2-0-2---2---2---2-| 
--------------2---2---2-| 
------------------------| 

----------- 
----------- 
----------- 
-2-2-2-2-2- 
-2-2-2-2-2- 
----------- 

where he does Em 5 times and then slaps his hand
 
 

Видео