Запрещают песни Цоя, Агата Кристи, Наутилус Помпилиус, Зиверт
Отвечаем в отдельной теме

AC/DC - Shook Me All Night Long, аккорды

Прокрутка
Тональность
Шрифт
100
Intro/Main Riff:
E|-3---------3-----3---|-3-----3-----3-|
B|-x—--3--3--x—-3—-x---|-x-----x-----x-|
G|-0—--x--x--0—-x—-0—-0|-0—-0—-0—-0--0-|
D|-0—--0--0--0—-0—-0—-2|-0--3—-0—-3--0-|
A|-3—--3--3--3—-3—-3—-3|-3--2—-3—-2--3-|
E|-3—--3--3—-3—-3—-3—-2|-3--3—-3—-3--3-|
*** ^ ***

Chorus:
E|-----------------3-3-|--------------------|
B|-------------------x-|--------------------|
G|---------0-----0---0-|---------0-----0-0-0|
B|-------0-----0-----0-|-------0-----0-----2|
A|-0-2-3-----2-------3-|-0-2-3-----2-------3|
E|---------------------|-------------------2|

E|-----------------3-3-|--------------------|
B|-------------------x-|--------------------|
G|---------0-----0---0-|---------0-----0-0-0|
D|-------0-----0-----0-|-------0-----0-----2|
A|-0-2-3-----2-------3-|-0-2-3-----2-------3|
E|---------------------|-------------------2|

E|-----------------3-3-|
B|-------------------x-|
G|---------0-----0---0-|
D|-------0-----0-----0-|
A|-0-2-3-----2-------3-|
E|-------------------3-|

Комментарий автора:

Note: The chords with the stars under them are the same chord.
      Don’t play them both. The deal is that the one at the end, 
      ends the riff, and starts it over.
 
 

Видео