Запрещают песни Цоя, Агата Кристи, Наутилус Помпилиус, Зиверт
Отвечаем в отдельной теме

AC/DC - Big Balls (btab), аккорды

Прокрутка
Тональность
Шрифт
100
Intro: you should slide from note to note
---------------------------------------------------------
---------------------------------------------------------
--7---3---7---3---7---3---7---3---5---7-7-7-7-7----------
---------------------------------------------------------

Verse:
---------------------------------------------------------
---------------------------------------------------------
--3---3---3---3---3---3---3---3---3(etc.)----------------
---------------------------------------------------------

Chorus:
---------------------------------------------------------
---------------------------------------------------------
--5--5--5--5-3-7--7--7--7-3--5--5--5--5-3--7--7--7(etc.)-
---------------------------------------------------------

Chorus: slide these notes
---------------------------------------------------------
---------------------------------------------------------
--3--5--5--5--7--7--7--5--5--5--0--3---------------------
---------------------------------------------------------

Комментарий автора:

Tabbed by B.J.Lisko
 
 

Видео