Запрещают песни Цоя, Агата Кристи, Наутилус Помпилиус, Зиверт
Отвечаем в отдельной теме

AC/DC - You Shook Me All Night Long, аккорды

Прокрутка
Тональность
Шрифт
100
Intro: Repeat a couple of times.          
e|-------------------------------2---------|
B|-------------------------------3---------|
G|-8--10---8---8---7-h-8-p-7-----2---------|
D|-7---7---7---7-------------7---0---3-p-0-|
A|-----------------------------------------|
E|-----------------------------------------|

Main riff:
---------------------|---------------|
---------------------|---------------|
-0--5--5--0--5--0--7-|---0-0-7-0-7-0-|
-0--5--5--0--5--0--7-|---0-0-7-0-7-0-|
---------------------|---------------|
---------------------|---------------|

________________________________________
Intro:
|3---------------|5--3------3----|---------------|---------------|
|3---------------|3--3--3-----3--|3--------------|3--------------|
|0---------------|0---0----0-----|2--------------|2--------------|
|----------------|---------------|0----------3-4-|0-----3-4--3-4-|
|----------------|---------------|---------------|---------------|
|----------------|---------------|---------------|---------------|

|3---------------|5--3------3----|---------------|3--------------|
|3---------------|3--3--3-----3--|3--------------|2--------------|
|0---------------|0---0----0-----|2--------------|0--------------|
|----------------|---------------|0----------3-4-|---------------|
|----------------|---------------|---------------|---------------|
|----------------|---------------|---------------|---------------|

Verse: G | C C G C G | D | G G C G C }x repeat

Chorus: G A B | C B | D | A B C B 

Main Riff 1 for first verse: 
e|--3--------(3)-(3)--3----(3)--3----2------3---3---2-----3---2-
B|--0---------1---1---0-----1---0----3------0---0---3-----0---3-
G|--0---------0---0---0-----0---0----2------0---0---2-----0---2-
D|--0--------(2)-(2)--0-----2---0----0------0---0---0-----0---0-
A|-(2)--------3---3--(2)----3--(2)---------(2)-(2)-------(2)----
E|--3-----------------3---------3-----------3---3---------3-----
  
Second Verse (one guitar plays Main Riff 1, other plays this): 
--3--------(3)-(3)--3----(3)--3----2------3---3---2-----3---2-
--0---------1---1---0-----1---0----3------3---3---3-----3---3-
--0---------0---0---0-----0---0----2------0---0---2-----0---2-
--0--------(2)-(2)--0-----2---0----0------0---0---0-----0---0-
-(2)--------3---3--(2)----3--(2)---------(2)-(2)-------(2)----
--3-----------------3---------3-------------------------------
 
Chorus (both guitars):
-----3-----------------------2-------------------------3-
-----3---------3-----3-------3----------3--------3-----0-
-----0-----------0-----0-----2------------0----0-------0-
-0---0--------------------0--0-------------------------0-
-2---2---0-2-3-----2--------------0-2-3------2---------2-
-3---3----------------------------------------------3--3-
 
_____________________________________________
Main Riff: 
e|-3--5-3-3---3-3--2---------------------
B|-3--3-3-3---3-3--3---------------------
G|-0--0-0-0-0---0--2---2-2-2------------- o
D|-----------------0---0-3-0--3-4-0-3-4-- o
A|---------------------------------------
E|--------------------------------------- 
 
 

Видео