Запрещают песни Цоя, Агата Кристи, Наутилус Помпилиус, Зиверт
Отвечаем в отдельной теме

AC/DC - Dirty Deeds Done Dirt Cheap, аккорды

Прокрутка
Тональность
Шрифт
100
E------------------------------------------------------------------
B------------------------------------------------------------------
G------------------------------------------------------------------
D-------------------------------------------------5----------------
A----0----------3-----0----------5-----0----------5-----0---------- 
E----0----------3-----0----------5-----0----------------0----------

E------------------------------------------------------------------
B------------------------------------------------------------------
G------------------------------------------------------------------
D-------------------------------------------------5----------------
A----0----------3-----0----------5-----0----------5-----0---------- 
E----0----------3-----0----------5-----0----------------0----------

E------------------------------------------------------------------
B------------------------------------------------------------------
G------------------------------------------------------------------
D-------------------------------------------------5----------------
A----0----------3-----0----------5-----0----------5-----0---------- 
E----0----------3-----0----------5-----0----------------0----------

E------------------------------------------------------------------
B------------------------------------------------------------------
G------------------------------------------------------------------
D-------------------------------------------------5----------------
A----0----------3-----0----------5-----0----------5-----0---------- 
E----0----------3-----0----------5-----0----------------0----------
 
 

Видео