Запрещают песни Цоя, Агата Кристи, Наутилус Помпилиус, Зиверт
Отвечаем в отдельной теме

AC/DC - Back In Black (btab), аккорды

Прокрутка
Тональность
Шрифт
100
 Verse:
 G:-------------------------------------------------
 D:-------------------------------------------------
 A:-------5-5-5-------------------------------------
 E:-0---------------5-5-5---------------------------
 
 G:-------------------------------------------------
 D:-------------------------------------------------
 A:-------5-5-5-------------------------------------
 E:-0---------------5-5-5-----8-5--8-6--8-7--8-7----
 
 Chorus:
 G:-------------------------------------------------
 D:-------------------------------------------------
 A:-------------------------5-0-7-5-7---5-0-7-5-7---
 E:-5-0-7-5-7---5-0-7-5-7---------------------------
 
 G:-------------------------------------------------
 D:------------------------5---5-5------------------
 A:----------------------------------5-5-5----------
 E:-5-0-7-5-7---5-0-7-5-7---------------------------
 
 During solo:
 G:------------------------------------------
 D:------------------------------------------
 A:-------5-5-5------------------------------
 E:-0---------------5-5-5----0-0--0-0--0-0---
 
 G:----------------------------------
 D:----------------------------------
 A:--5-5-5---------------------------
 E:------------5-5-5----0-5--0--5----
 
 

Видео