Запрещают песни Цоя, Агата Кристи, Наутилус Помпилиус, Зиверт
Отвечаем в отдельной теме

AC/DC - Highway To Hell (tab), аккорды

Прокрутка
Тональность
Шрифт
100
Intro: x2
    A5              D/F# G5         D/F# G5  D/F# G5      A5
  -----.-||-------------.-|-------------.-|------.--------|-.------------.--||
  -------||---------------|---------------|---------------|-----------------||
  -2-2-2-||o--------------|---------------|-------------2-|-2--------2-2-2-o||
  -2-2-2-||o------------5-|-------------5-|------5------2-|-2--------2-2-2-o||
  -0-0-0-||---------5-5-5-|---------5-5-5-|--5-5-5---5--0-|-0--------0-0-0--||
  -------||---------2-2-3-|---------2-2-3-|--2-2-3---2----|-----------------||
   & 4 &  1 & 2 & 3 & 4 & 1 & 2 & 3 & 4 &  1 & 2 & 3 & 4 &  1 & 2 &3 & 4 &
   
Verse 1:
    A5              D/F# G5         D/F# G5  D/F# G5      A5
  -----.-||-------------.-|-------------.-|------.--------|-.------------.--||
  -------||---------------|---------------|---------------|-----------------||
  -2-2-2-||o--------------|---------------|-------------2-|-2--------2-2-2-o||
  -2-2-2-||o------------5-|-------------5-|------5------2-|-2--------2-2-2-o|| x3
  -0-0-0-||---------5-5-5-|---------5-5-5-|--5-5-5---5--0-|-0--------0-0-0--||
  -------||---------2-2-3-|---------2-2-3-|--2-2-3---2----|-----------------||
   & 4 &  1 & 2 & 3 & 4 & 1 & 2 & 3 & 4 &  1 & 2 & 3 & 4 &  1 & 2 &3 & 4 &

    D/F# G5  D/F#     E5                               
  |------------------|------------------|-----------------||
  |------------------|------------------|-----------------||
  |------------------|------------------|-----------------||
  |------5-----------|-9-9-9-9-9-9-9-9--|-9-9-9-9-9-9--9--||
  |--5-5-5----5------|-7-7-7-7-7-7-7-7--|-7-7-7-7-7-7--7--||
  |--2-2-3----2---0--|-0-0-0-0-0-0-0-0--|-0-0-0-0-0-0--0--||
   1 & 2 & 3  & 4 &    1 & 2 & 3 & 4 &    1 & 2 & 3 &  4 &
   
        Livin' easy, livin' free
        Seаson ticket on a one-way ride
        Askin' nothin' leave me be
        Takin' everything in my stride
        Don't need reаson, don't need rhyme
        Ain't nothing that I'd rather do
        Goin' down party time
        My friends are gonnа be there, too

Chorus:   
    A5               D             G   D      A5        D              
  ||-------------------|----2-2----3---2----||----------2=|===2===|==2-||
  ||-----------------3=|==3-3-3-3--3---3----||----------3=|===3===|==3-||
  ||o--2---2---2--2--2=|==2-2-2-2--0---2---o||-2-2-2--2-2=|===2===|==2-||
  ||o--2---2---2--2--0=|==0-0-0-0--0---0---o||-2-2-2--2-0=|===0===|==0-|| x3
  ||---0---0---0--0----|--------------------||-0-0-0--0---|-------|----||
  ||-------------------|-----------3--------||------------|-------|----||
       1   2   3  4  &    1 & 2 &  3   4       1 2 3  4 &---1234----123
   
        I'm on a Highway to Hell
        On the Highway to Hell
        Highway to Hell
        On the Highway to Hell
   
Verse 2:
    A5              D/F# G5         D/F# G5  D/F# G5      A5
  -----.-||-------------.-|-------------.-|------.--------|-.------------.--||
  -------||---------------|---------------|---------------|-----------------||
  -2-2-2-||o--------------|---------------|-------------2-|-2--------2-2-2-o||
  -2-2-2-||o------------5-|-------------5-|------5------2-|-2--------2-2-2-o|| x3
  -0-0-0-||---------5-5-5-|---------5-5-5-|--5-5-5---5--0-|-0--------0-0-0--||
  -------||---------2-2-3-|---------2-2-3-|--2-2-3---2----|-----------------||
   & 4 &  1 & 2 & 3 & 4 & 1 & 2 & 3 & 4 &  1 & 2 & 3 & 4 &  1 & 2 &3 & 4 &

    D/F# G5  D/F#     E5                               
  |------------------|------------------|-----------------||
  |------------------|------------------|-----------------||
  |------------------|------------------|-----------------||
  |------5-----------|-9-9-9-9-9-9-9-9--|-9-9-9-9-9-9--9--||
  |--5-5-5----5------|-7-7-7-7-7-7-7-7--|-7-7-7-7-7-7--7--||
  |--2-2-3----2---0--|-0-0-0-0-0-0-0-0--|-0-0-0-0-0-0--0--||
   1 & 2 & 3  & 4 &    1 & 2 & 3 & 4 &    1 & 2 & 3 &  4 &

        No stop signs speed limit
        Nobody's gonnа slow me down
        Like a wheel, gonnа spin it
        Nobody's gonnа mess me аround
        Hey, Satan payin' my dues
        Playin' in a rockin' band
        Hey, mama, look at me
        I'm on my way to the Promised Land

Chorus 2:   
    A5               D             G   D      A5        D              
  ||-------------------|----2-2----3---2----||----------2=|===2===|==2-||
  ||-----------------3=|==3-3-3-3--3---3----||----------3=|===3===|==3-||
  ||o--2---2---2--2--2=|==2-2-2-2--0---2---o||-2-2-2--2-2=|===2===|==2-||
  ||o--2---2---2--2--0=|==0-0-0-0--0---0---o||-2-2-2--2-0=|===0===|==0-|| x3
  ||---0---0---0--0----|--------------------||-0-0-0--0---|-------|----||
  ||-------------------|-----------3--------||------------|-------|----||
       1   2   3  4  &    1 & 2 &  3   4       1 2 3  4 &---1234----123

        I'm on a Highway to Hell
        Highway to Hell
        I'm on the Highway to Hell
        Highway to Hell
  
     D     G     D                         D     G     D        G    D   G
  |--2-----3-----2===|======2-----------|--2-----3-----2===|=2--3----2---3---||
  |--3-----3-----3===|======3-----------|--3-----3-----3===|=3--3----3---3---||
  |--2-----0-----2===|======2-----------|--2-----0-----2===|=2--0----2---0---||
  |--0-----0-----0===|======0-----------|--0-----0-----0===|=0--0----0---0---||
  |------------------|------------------|------------------|-----------------||
  |--------3---------|------------------|--------3---------|----3--------3---||
     1 & 2 & 3 & 4---------1234            1 & 2 & 3 & 4&----1  &2&  3   4
          
        Don't stop now
   
(Jam on the A pentatonic minor scale)

Chorus 3:   
    A5               D             G   D      A5        D              
  ||-------------------|----2-2----3---2----||----------2=|===2===|==2-||
  ||-----------------3=|==3-3-3-3--3---3----||----------3=|===3===|==3-||
  ||o--2---2---2--2--2=|==2-2-2-2--0---2---o||-2-2-2--2-2=|===2===|==2-||
  ||o--2---2---2--2--0=|==0-0-0-0--0---0---o||-2-2-2--2-0=|===0===|==0-|| x3
  ||---0---0---0--0----|--------------------||-0-0-0--0---|-------|----||
  ||-------------------|-----------3--------||------------|-------|----||
       1   2   3  4  &    1 & 2 &  3   4       1 2 3  4 &---1234----123

        I'm on a Highway to Hell
        On a Highway to Hell
        I'm on a Highway to Hell
        On a Highway to...
   
Stutter-pause in middle of 3rd Chorus:
   A5             D  
  |---------------.--|---------------|
  |---------------3--|---------------|
  |--2--2--2---2--2--|---------------|
  |--2--2--2---2--0--|---------------|
  |--0--0--0---0--0--|---------------|
  |------------------|---------------|
     1  2  3   4  &
   
    A5               D             G   D      A5        D              
  ||-------------------|----2-2----3---2----||----------2=|===2===|==2-||
  ||-----------------3=|==3-3-3-3--3---3----||----------3=|===3===|==3-||
  ||o--2---2---2--2--2=|==2-2-2-2--0---2---o||-2-2-2--2-2=|===2===|==2-||
  ||o--2---2---2--2--0=|==0-0-0-0--0---0---o||-2-2-2--2-0=|===0===|==0-|| x3
  ||---0---0---0--0----|--------------------||-0-0-0--0---|-------|----||
  ||-------------------|-----------3--------||------------|-------|----||
       1   2   3  4  &    1 & 2 &  3   4       1 2 3  4 &---1234----123
                      
        Highway to Hell 
        I'm on a Highway to Hell
        Highway to Hell
        Highway to Hell
        Highway to Hell
        Highway to
        Highway to Hell

        And I'm goin' down all the way
   
 (then A5 thirty-second-note extended strum)
   
        I'm on the Highway to Hell.
   
(then single staccato A5)
 
And the guitar solo bit: (after "Don't stop me!") 
 E|--2---3---3---2-----|--3---3---3---2----2----|------5-------------------
 B|--3---3---3---3-----|--3---3---3---3----3----|----5---------5-5------5--
 G|--3---3---3---3-----|--3---3---3---3----2--7b(9)------7b(9)-----7b(9)---
 D|--0---0---0---0-----|--0---0---0---0----0----|--------------------------
 A|--0---0---0---0-----|--0---0---0---0----0----|--------------------------
 E|--------------------|------------------------|--------------------------
   
 E|-----------------------------------|----------------|------------------------
 B|-5--------5--5-------5--5--7--(8)r7b(8)-------------|------------------------
 G|----7b(9)------7b(9)-------7--(8)r7b(8)--5-----7---5b(6)---------------------
 D|-----------------------------------|--------7-------|-------4--(5)r4--2------
 A|-----------------------------------|----------------|-----X-------------3--0-
 E|-----------------------------------|----------------|------------------------
 
 E|----------5-----------|----------5--X---------|----------------5--
 B|-------------5--------|----------5--X-----5---|-------------------
 G|-2--4b(6)------(6)r4--|-2--0-----------4b(5)--|---2--0--X--/2-----
 D|----------------------|-----------------------|-------------------
 A|----------------------|-------0---------------|-------------------
 E|----------------------|-----------------------|-------------------
   
 E|---------------------------|
 B|-5-------------------------|
 G|---4--(5)r4--X/14--X/18----|
 D|---------------------------|
 A|---------------------------|
 E|---------------------------|
 
 (The trill bit at the end is just frets 12 and 15 on the top string)

Комментарий автора:

 Notаtion used:
 
     5b(7)  play at fret 5 and bend to fret 7
     (7)r5  play string already bent to fret 7 and release to fret 5
     4/6 and 64 slide up/down from..to
      X play muted string
 
 

Видео