Запрещают песни Цоя, Агата Кристи, Наутилус Помпилиус, Зиверт
Отвечаем в отдельной теме

AC/DC - TNT, аккорды

Прокрутка
Тональность
Шрифт
100
E|-------------------3-2---0------------------------------------------------|
B|---------------------------------3-2---0----------------------------------|
G|-2B---HOLD---R-----------------------2---0-----------0--------------------|
D|----------------------------------------------4/5-------------------------|
A|--------------------------------------------------------------------------|
E|---------------------------------------------------------------/15-----0--|
 
E|----------------12--------------------------------------------------------|
B|-15B-V------------15----12-------- 12-------------------------------------|
G|--------------------------------12H14----14-14P12-----14-------12-----14B-|
D|------------------------------------------------------------14------14----|
A|--------------------------------------------------------------------------|
E|--------------------------------------------------------------------------|

E|------12---------------------------------12-------------------------------|
B|-12---12----15P12-------------------------------------------12------15B-V-|
G|------------------------14H16---------------------------------------------|
D|--------------------------------------------------------------------------|
A|--------------------------------------------------------------------------|
E|--------------------------------------------------------------------------|

E|-------------------------------17B----V-|
B|----------------------------------------|
G|----------------------------------------|
D|-14---12---14V-------14-----------------|
A|----------------------------------------|
E|----------------------------------------|
 
 

Видео