Аффинаж - Мира, аккорды

Прокрутка
Тональность
Шрифт
100
E|-----------------------------------------------------|
B|-----------------------------------------------------|
G|-----------------------------------------------------|
D|----6----------4---------------1----------------1----|
A|-4-----4-------0----------------------2--------------|
E|-----------------------------------------------------|
 Вверх-вниз, в сознании спутанном мечутся мысли в ночи  
    
E|-----------------------------------------------------|
B|-----------------------------------------------------|
G|-----------------------------------------------------|
D|-----6--------4--------------1------------1----------|
A|--4-----4-----0---------------------2----------------|
E|-----------------------------------------------------|
Вернись,      я помыл всю посуду, даже ножи наточил     
         
E|-----------------------------------------------------|
B|-----------------------------------------------------|
G|-----------------------------------------------------|
D|----6--------4------------------------------1--------|
A|-4-----4-----0-----------------------2-------------2-|
E|-----------------------------------------------------|
 Один,         разбитый, простуженный, в закрытую дверь сказал:

E|-----------------------------------------------------|
B|-----------------------------------------------------|
G|-----------------------------------------------------|
D|------6--------------4-----------------------1-------|
A|---4-----4-----------0---------------2-------------2-|
E|-----------------------------------------------------|
"Приди         хотя бы в гости на ужин, я смог приготовить сам"

   C#m7          F#m           
Вверх-вниз, а потом ещё выше,
   B           
Туда, где солнце оставит ожог
   C#m7          F#m              
Вернись, я всё выбросил лишнее
   B           
И даже фильмы на вечер нашёл

   C#m7          F#m           
Ждать невозможное чудо,
   B           
Уходя с головою в дела
   C#m7          F#m           
Представь: я помыл всю посуду,
   B           
У несчастных вся посуда цела

Припев:
C#m                     F#m                    
Как меня на кого-то так меняла легко?
B                                                            
Это ты смеёшься на фото, словно это шутка и всего-то
C#m7                        F#m                     
Ты смеёшься на фото... Вот заветное слово
B                                                                
Ничего не сработало: сломано или не было словно

C#m                        F#m                       
Как меня на кого-то так меняла легко?
B                                                            
Это ты смеёшься на фото, словно это шутка и всего-то
C#m                               F#m                        
Ты смеёшься на фото... Вот заветное слово
B                                                                 
Ничего не сработало: сломано или не было словно

C#m7                                F#m (2)  
Мира тебе! Мира тебе! Мира тебе-е-е!
B                                               
Мира тебе! Мира тебе! Мира тебе-е-е!
C#m7                                F#m (2)  
Мира тебе! Мира тебе! Мира тебе-е-е!
B                                               
Мира тебе! Мира тебе! Мира тебе-е-е!

C#m7                                F#m (2)  
Мира тебе! Мира тебе! Мира тебе-е-е!
B                                               
Мира тебе! Мира тебе! Мира тебе-е-е!                
C#m7                                F#m (2)  
Мира тебе! Мира тебе! Мира тебе-е-е!
B                                               
Мира тебе! Мира тебе! Мира тебе-е-е!
 
 
Свернуть Распечатать

Видео