Аффинаж - Клыки (ft 25/17), аккорды

Прокрутка
Тональность
Шрифт
100
Intro: 
E-12-----------------12------------------------------------------------
B----13-14-15-16--------13-14-15-16------------------------------------
G----------------------------------------------------------------------
D----------------------------------------------------------------------
A----------------------------------------------------------------------
E------------------------------------7-7-7-7-6-8-7-7-7-7-8-6-7-7-7-7-6-

E|---------
B|---------
G|---------
D|---------
A|---------
E|-8-7-7-7-

После табов делаете несколько ударов по деке (вместо барабана).

Вступление: Am (десять ударов вниз) A (один удар вниз) }x2 

Gm
Ветки чертят луну на осколки,
Gm
чуют кровь беспокойные волки,
Gm
и услышав их вой, прячься или беги,
Gm
в эту ночь у овец вырастают клыки.

Несколько ударов по деке

Проигрыш: (он такой же как и вступление)
E-12-----------------12------------------------------------------------
B----13-14-15-16--------13-14-15-16------------------------------------
G----------------------------------------------------------------------
D----------------------------------------------------------------------
A----------------------------------------------------------------------
E------------------------------------7-7-7-7-6-8-7-7-7-7-8-6-7-7-7-7-6-

E|---------
B|---------
G|---------
D|---------
A|---------
E|-8-7-7-7-

Gm
Я не ел, я не спал,
Cm
бел как мел, ждём привал.
Em
Нас уже слепо гонят на убой,
F#m
по лужам неба побегу босой.
F
Мама, мамуля, мама, мамочка моя,
Gm
нас обманули пентаграммой на дома
Cm
и потрошат, как лягушат, в кабаке,
Em
водка, мат, бушлат, петля на кадыке.
F#m
Нас тут режут на потеху, ради выгоды, 
F
множит наши крики эхо, делай выводы.
Gm
Знаешь, значит, нам больше нечего терять,
Cm
наша задача – быть умнее съеденных телят.
Em
Плоды уже созрели – время жатвы, урожай.
F#m
В хлеву – пустая колыбель, нам не угрожай.
F
Пожинатель душ до блеска наточил серпы,
F
солнце упало в лес, пора вязать снопы. 

(Несколько ударов по деке)

Проигрыш:
E-12-----------------12------------------------------------------------
B----13-14-15-16--------13-14-15-16------------------------------------
G----------------------------------------------------------------------
D----------------------------------------------------------------------
A----------------------------------------------------------------------
E------------------------------------7-7-7-7-6-8-7-7-7-7-8-6-7-7-7-7-6-

E|---------
B|---------
G|---------
D|---------
A|---------
E|-8-7-7-7-

Gm
Страх истратит чувство одиночества,
Gm
травмы станут знаком, что я есть ещё.
Gm
Страх истратит чувство одиночества,
Gm
травмы станут знаком, что я есть…

Gm
Ветки чертят луну на осколки,
Gm
чуют кровь беспокойные волки,
Gm
и услышав их вой, прячься или беги,
Gm
в эту ночь у овец вырастают клыки.
Gm
Беги…

Комментарий автора:

Все аккорды на баррэ
 
 
Свернуть Распечатать

Видео