Агата Кристи - Сказочная тайга, аккорды

Прокрутка
Тональность
Шрифт
100
Вступление:
Dm        Gm      A         F    
|-----------5-8-6-------5-------6-5----
|-----------------------------5--------
|-----7---7-----------------6----------
|--------------------------------------
|--------------------------------------
|--------------------------------------
    Dm        G     A     Dm
|---------5-8-7-----9-----10---------
|------------------------------------
|---7---7----------------------------
|------------------------------------
|------------------------------------
|------------------------------------

|----5-5--------------- 
|--------8-8-6-6-5-5--- 
|---------------------- 
|---------------------- 
|---------------------- 
|---------------------- 

Dm               E7
Когда я на почте служил ямщиком,
A                Dm
Ко мне постучался косматый геолог
Bb                Dm
И глядя на карту на белой стене
E7             A
Он усмехнулся мне.

|----5-5--------------- 
|--------8-8-6-6-5-5--- 
|---------------------- 
|---------------------- 
|---------------------- 
|---------------------- 

Dm                   E7
Он рассказал, как плачет тайга,
Gm          A
Без мужика она одинока.
Dm              E7
Нету на почте у них ямщика,
Gm
Значит нам туда дорога,
A
Значит нам туда дорога.

Припев:
Dm               Gm
Облака в небо спрятались,
A             F5-
Звезды пьяные смотрят вниз
Dm          G
И в дебри сказочной тайги
A      Dm
Падают они.

Соло во время припева:
|-------------------------
|--8--7-----7-8-10-8------
|--------9------------9---
|-------------------------
|-------------------------
|-------------------------
   Bb/E          Em7
|-------------------------|
|--7----------7-8-7-------|
|-----9--8--9--------7----|
|-------------------------|
|-------------------------|
|-------------------------|
|-------------------------|
                                           
  Em            A          Bb7
|----0-----------------0--------------11-|--12----|
|-0-------------12-10--------------12----|---------|
|-------11--12-------------12--11--------|---------|
|----------------------------------------|---------|
|----------------------------------------|---------|
|----------------------------------------|---------|

Проигрыш: Dm Gm A F Dm G A Dm 

Dm                 E7
Черные сказки белой зимы
A                       Dm
На ночь поют нам большие деревья
Bb                Dm
Черные сказки про розовый снег
E7             A
Розовый снег даже во сне
Dm                   E7
А ночью по лесу идет Сатана
Gm          A
И собирает свежие души
Dm              E7
Новую кровь получила зима
Gm
И тебя она получит
A
И тебя она получит

Em                 Am
Облака в небо спрятались,
B             G
Звезды пьяные смотрят вниз
Em          Am
И в дебри сказочной тайги
B      Em
Падают они.

Проигрыш на басу:
5|---------|---------5-----|-----2-3---2-3-|-2-3-5-7---5-7-5-------|
6|-5-0-3-5-|-0-5-4-3---2-3-|-2-3-----3-----|---------7-------8-7-6-|

Комментарий автора:

Прислал Emilio el_kamino@list.ru !
 
 
Свернуть Распечатать

Видео