Альянс - На заре, аккорды

Прокрутка
Тональность
Шрифт
100
Табулатура риффа:
e------------------------------------------------------------------
B-----------------------------------3-3-3--------------------------
G------------------------3-3-3-3-3---------3-3-3--5-5-5-2-2-2------
D--5-5-5-------------------------------------------------------3-3-
A--------------5-5-6-6-6-------------------------------------------
E--------6-6-6-----------------------------------------------------

Проигрыш после риффа: Gm D# A# F

Gm    		A#   D
Ровный бег моей судьбы
Gm 		A#    D
Ночь печаль и блеск души
Cm			F
Лунный свет и майский дождь
	Gm D# A# F Gm D# F D A# Cm A# D# C# A# G#
В небесах.

Gm    		A#   D
Долгий век моей звезды
Gm    		A#    D
Сонный блеск земной росы
Cm			F
Громкий смех и райский мед
Gm D# A# F
В небесах.

Gm D# A# F Gm D# A# F
На заре голоса зовут меня
Gm D# A# F Gm D# A# F 
На заре небеса зовут меня

Рифф:
e------------------------------------------------------------------
B-----------------------------------3-3-3--------------------------
G------------------------3-3-3-3-3---------3-3-3--5-5-5-2-2-2------
D--5-5-5-------------------------------------------------------3-3-
A--------------5-5-6-6-6-------------------------------------------
E--------6-6-6-----------------------------------------------------

Проигрыш после риффа: Gm D# A# F

Gm    		A#	D
Солнца свет и сердца звук
Gm    		A#	D
Робкий взгляд и сила рук
Cm			F	
Звездный час моей судьбы
Gm D# A# F
В небесах.

Gm D# A# F Gm D# A# F
На заре голоса зовут меня
Gm D# A# F Gm D# A# F
На заре небеса зовут меня

Outro:
e------------------------------------------------------------------
B-----------------------------------3-3-3--------------------------
G------------------------3-3-3-3-3---------3-3-3--5-5-5-2-2-2------
D--5-5-5-------------------------------------------------------3-3-
A--------------5-5-6-6-6-------------------------------------------
E--------6-6-6-----------------------------------------------------
 
 
Свернуть Распечатать

Видео