Александр Литвинов - Скотник Саша, аккорды

Прокрутка
Тональность
Шрифт
100
Intro: D D/B Em A7

Скотник Саша и все до фени.
Скотник Саша чей-то
племянник в третьем колене...
Em
И он катается в коровьем
A7 D
дерьме как голландский сыр
A7 Bm
в прованском масле.
G
С зеленым змием в руках,
A7
на звездно-полосатом коне.

Все до фени... Дык, елы-палы!
Состоянье набекрени, что нам
боги, дворцы да каналы?...
И, сидя в преглубокой дыре, он
часто видит сон и ему кажется,
что Дело и в количестве женщин,
и в новой волне...

Комментарий автора:

В основном проигрыше на A7 можно играть двойной бас:
1|---22---2---000--0-0-|
2|---33---3---000--2-2-|
3|---22---2---000--0-0-|
4|-0-------------------|
5|-----2----------0-0--|
6|-----------0---------|

На словах "и он катается" бас играет проигрыш (пр правде, слегка по-другому, 
но мне так нравится):

1|--0-0-0-0-0-0-0-0-|
2|--0-0-0-0-2-2-2-2-|
3|--0-0-0-0-0-0-0-0-|
4|------------------|
5|---------0-2-3-0--|
6|-0-2-3-0----------|

Далее - простыми ударами.
 
 
Свернуть Распечатать

Видео