Александр Маршал - Белая луна, аккорды

Прокрутка
Тональность
Шрифт
100
Вступление: Cm D# Fm G Cm D# Fm G Cm G# A# D# G# G Cm

e|-----|-------------|-----------8-|-------|---------8-|-6-8-6-------|-6-------------|
B|---8-|-6-8-6-------|-------6-8---|-9-6---|-------8---|-------6-9-8-|---9-8-6-------|
G|-5---|-------5-8-7-|-5-7-8-------|-----7-|-5-7-8-----|-------------|---------8-7-5-|
D|-----|-------------|-------------|-------|-----------|-------------|---------------|
A|-----|-------------|-------------|-------|-----------|-------------|---------------|
E|-----|-------------|-------------|-------|-----------|-------------|---------------|

       Fm  G   Cm Fm    A#           D# C7
Бродит белая луна и в холодный зимний вечер,
      Fm G   G# C7 Fm    G          Cm
Я под этою луной кем-то свыше был замечен.
       Fm  G   Cm Fm      A#       D# C7
Бродит белая луна, бродит по своим дорогам,
    Fm    G     G# C7 Fm  G          Cm C7
Я сегодня сам с собой говорю об очень многом,
    Fm    G     G# C7 Fm  G           Cm
Я сегодня сам с собой говорю об очень многом.

Проигрыш: Cm D# Fm G Cm D# Fm G Cm G# A# D# G# G Cm

e|-----|-------------|-----------8-|-------|---------8-|-6-8-6-------|-6-------------|
B|---8-|-6-8-6-------|-------6-8---|-9-6---|-------8---|-------6-9-8-|---9-8-6-------|
G|-5---|-------5-8-7-|-5-7-8-------|-----7-|-5-7-8-----|-------------|---------8-7-5-|
D|-----|-------------|-------------|-------|-----------|-------------|---------------|
A|-----|-------------|-------------|-------|-----------|-------------|---------------|
E|-----|-------------|-------------|-------|-----------|-------------|---------------|

       Fm  G   Cm Fm A#       D# C7
Бродит белая луна одинокая, шальная,
         Fm  G    G# C7 Fm  G          Cm C7
Бродит с вечера одна, про любовь мою не зная,
         Fm  G    G# C7 Fm  G          Cm
Бродит с вечера одна, про любовь мою не зная.

Модуляция на полутон вверх.

       F#m G#  C#m F#m  B            E C#7
Бродит белая луна, потревожив легкий сон мой,
       F#m   G#   A C#7 F#m   G#       C#m  C#7
Так и бродит до утра, словно сторож беспокойный,
       F#m   G#   A C#7 F#m   G#       C#m
Так и бродит до утра, словно сторож беспокойный.

Проигрыш: F#m G# C#m F#m B E C#7 F#m G# A C#7 F#m G# C#m

e|-------|-5-4---|-----|-5-7---|-5-4-7-7-|-7-5-4---|-----4-7-|-5-4---|
B|-4-5-7-|-----7-|-5---|-----7-|---------|-------7-|-5-6-----|-------|
G|-------|-------|---6-|-------|---------|---------|---------|-----5-|
D|-------|-------|-----|-------|---------|---------|---------|-------|
A|-------|-------|-----|-------|---------|---------|---------|-------|
E|-------|-------|-----|-------|---------|---------|---------|-------|

e|---------4-----4-|-7-5-4-8-|-9-7-|-7-5-4-------|---|
B|-------5-----6---|---------|-----|-------7-5---|---|
G|-8-6-8-----6-----|---------|-----|-----------8-|-6-|
D|-----------------|---------|-----|-------------|---|
A|-----------------|---------|-----|-------------|---|
E|-----------------|---------|-----|-------------|---|

      F#m   G#   C#m F#m    B            E C#7
Без надежды на покой долгий путь судьбой отмерен,
        F#m G# A C#7 F#m G#         C#m C#7
Мне под белою луной остаётся только верить,
        F#m G#  A C#7 F#m G#7       C#sus2
Мне под белою луной остаётся только верить.
 
 
Свернуть Распечатать

Аппликатуры аккордов

Аккорд CmАккорд D#Аккорд FmАккорд GАккорд G#Аккорд A#Аккорд C7Аккорд F#mАккорд C#mАккорд BАккорд EАккорд C#7Аккорд AАккорд G#7Аккорд C#sus2
ivan30ivan30
автор подбора аккордов
572 0 02.04.2021

Видео