Алексин Андрей - Малолетние шалавы, аккорды

Прокрутка
Тональность
Шрифт
100
Проигрыш: x2
    1-----3-2-0-------------------3-2-0-  
    2-----0-0-----3-1-0---3-1-0---0-0--- 
    3---0-------0-------0-------2-------  
    4-----------------------------------    
    5---------3---------------2---------   
    6-0---------------3---------------0- 

Куплет:
      Em        C         G        B7      Em
1-----0---------0---------1---------3-2-----0----|
2-----0---------1---------0---------0-0-----0----|
3---0---0-----0---0-----0---0-----2-------0---0--|
4------------------------------------------------|
5-----------3----------2-------------------------|
6--0-----------------------------0-------0-------|

   Em     C   G  B7
   Малолетние шалавы,
   Em     C   G  B7
   На тусовку собрались,
   C        D     G     
   Мнутся на ногах костлявых
           B7        Em
   Все изрядно нажрались.

Проигрыш: x2
    1-----3-2-0-------------------3-2-0-  
    2-----0-0-----3-1-0---3-1-0---0-0--- 
    3---0-------0-------0-------2-------  
    4-----------------------------------    
    5---------3---------------2---------   
    6-0---------------3---------------0- 

Куплет:
      Em        C         G        B7      Em
1-----0---------0---------1---------3-2-----0----|
2-----0---------1---------0---------0-0-----0----|
3---0---0-----0---0-----0---0-----2-------0---0--|
4------------------------------------------------|
5-----------3----------2-------------------------|
6--0-----------------------------0-------0-------|

   Em     C   G  B7
   В угол бросили тетрадки,
   Em     C   G  B7
   Было к вечеру у них,
   C        D     G     
   Две дешёвых шоколадки
           B7        Em
   Пять бутылок на троих.
   
Проигрыш: x2
    1-----3-2-0-------------------3-2-0-  
    2-----0-0-----3-1-0---3-1-0---0-0--- 
    3---0-------0-------0-------2-------  
    4-----------------------------------    
    5---------3---------------2---------   
    6-0---------------3---------------0- 

Куплет:
      Em        C         G        B7      Em
1-----0---------0---------1---------3-2-----0----|
2-----0---------1---------0---------0-0-----0----|
3---0---0-----0---0-----0---0-----2-------0---0--|
4------------------------------------------------|
5-----------3----------2-------------------------|
6--0-----------------------------0-------0-------|

   Em     C   G  B7
   У подруг заняли шмоток
   Em     C   G  B7
   И напудрили носы
   C        D     G     
   А одна из них надела,
          B7       Em
   Даже чистые трусы.

Проигрыш: x2
    1-----3-2-0-------------------3-2-0-  
    2-----0-0-----3-1-0---3-1-0---0-0--- 
    3---0-------0-------0-------2-------  
    4-----------------------------------    
    5---------3---------------2---------   
    6-0---------------3---------------0- 

Куплет:
      Em        C         G        B7      Em
1-----0---------0---------1---------3-2-----0----|
2-----0---------1---------0---------0-0-----0----|
3---0---0-----0---0-----0---0-----2-------0---0--|
4------------------------------------------------|
5-----------3----------2-------------------------|
6--0-----------------------------0-------0-------|

   Em     C   G  B7
   А на центре иномарки
   Em     C   G  B7
   Тут идет вечерний съем
   C        D     G     
   И подружки завалились,
           B7        Em
   Прямо в тачку все втроем.
  
(Здесь начинается бой + вступает вторая гитара)

Соло второй гитары:
-3-2-0---------------------2--0-
-------3-1-0--3-0-------4-------
-------------------2-4----------

Куплет:
      Em        C         G        B7      Em
1-----0---------0---------1---------3-2-----0----|
2-----0---------1---------0---------0-0-----0----|
3---0---0-----0---0-----0---0-----2-------0---0--|
4------------------------------------------------|
5-----------3----------2-------------------------|
6--0-----------------------------0-------0-------|

   Em     C   G  B7
   И поехали кататься
   Em     C   G  B7
   Не известно даже с кем
   C        D     G     
   Девкам главное догнаться
           B7        Em
   Остальное без проблем
   
Проигрыш: x2
    1-----3-2-0-------------------3-2-0-  
    2-----0-0-----3-1-0---3-1-0---0-0--- 
    3---0-------0-------0-------2-------  
    4-----------------------------------    
    5---------3---------------2---------   
    6-0---------------3---------------0- 

Куплет:
      Em        C         G        B7      Em
1-----0---------0---------1---------3-2-----0----|
2-----0---------1---------0---------0-0-----0----|
3---0---0-----0---0-----0---0-----2-------0---0--|
4------------------------------------------------|
5-----------3----------2-------------------------|
6--0-----------------------------0-------0-------|

   Em     C   G  B7
   Где-то в загородной бане,
   Em     C   G  B7
   Телки водку будут жрать.
   C        D     G     
   На столе стуча ногами.
           B7        Em
   Танцы для братвы плясать.
   
Проигрыш: x2
    1-----3-2-0-------------------3-2-0-  
    2-----0-0-----3-1-0---3-1-0---0-0--- 
    3---0-------0-------0-------2-------  
    4-----------------------------------    
    5---------3---------------2---------   
    6-0---------------3---------------0- 

Куплет:
      Em        C         G        B7      Em
1-----0---------0---------1---------3-2-----0----|
2-----0---------1---------0---------0-0-----0----|
3---0---0-----0---0-----0---0-----2-------0---0--|
4------------------------------------------------|
5-----------3----------2-------------------------|
6--0-----------------------------0-------0-------|

   Em     C   G  B7
   Вот такая вот прогулка, 
   Em     C   G  B7
   На машине с ветерком
   C        D     G     
   А к утру косяк задолбим,
           B7        Em
   Завтра в школу не пойдем
  
(А с этого момента одна гитара играет боем простые аккорды, 
а вторая играет проигрыш)

Проигрыш: x2
    1-----3-2-0-------------------3-2-0-  
    2-----0-0-----3-1-0---3-1-0---0-0--- 
    3---0-------0-------0-------2-------  
    4-----------------------------------    
    5---------3---------------2---------   
    6-0---------------3---------------0- 

   G         B7   Em    C  G
   Завтра в школу не пойдеоо-оо-о-ом
   G         B7   Em    C  G
   Завтра в школу не пойдем
   G         B7   Em    C  G
   Завтра в школу не пойдеоо-оо-о-ом
   G         B7   Em    C  G
   Завтра в школу не пойдем
 
 
Свернуть Распечатать

Видео