Алеша Митюшкин - Черная шаль, аккорды

Прокрутка
Тональность
Шрифт
100
A5                       C#5
Гляжу, как безумный, на черную шаль,
A5                 G5    
И хладную душу терзает печаль.
B5                  C#5
Когда легковерен и молод я был,
A5        G5         E5     F#5
Младую гречанку я страстно любил;

A                   C#
Прелестная дева ласкала меня,
A                    G 
Но скоро я дожил до черного дня.
B                   C#
Однажды я созвал веселых гостей;
A            G          E        F#
Ко мне постучался презренный еврей;

Проигрыш:
B|------------------------|
G|-------------2-----1----|
D|-4--4--6--4-----4-----4-|

B-2-----3-----2-----0----|
G------------------------|
D----4-----4-----4-----4-|

F#5                            C#5 D5 C#
«С тобою пируют (шепнул он) друзья;
F#5                          C#5 D5 C#
Тебе ж изменила гречанка твоя».
F#5                          C#5 D5 C#
Я дал ему злата и проклял его
F#                  E      A G#
И верного позвал раба моего.

F#5                              C#5 D5 C#
Мы вышли; я мчался на быстром коне;
F#5                             C#5 D5 C#
И кроткая жалость молчала во мне.
F#5                          C#5 D5 C#
Едва я завидел гречанки порог,
F#                  E      A  G#
Глаза потемнели, я весь изнемог...

F#5                              C#5 D5 C#
В покой отдаленный вхожу я один...
F#5                         C#5 D5 C#
Неверную деву лобзал армянин.
F#5                             C#5 D5 C#
Не взвидел я света; булат загремел... 
F#                  E      A   G#
Прервать поцелуя злодей не успел.

B                      D#
С тех пор не целую прелестных очей,
B                      A
С тех пор я не знаю веселых ночей.
C#                       E
Гляжу, как безумный, на черную шаль,
B          A       F#     G#
И хладную душу терзает печаль.

Проигрыш:
e-14--14--16--14--17--14--16--14-|
B------------------|-------------|

e-21------22------21------19-----|
B-----19------19------19------19-|

F#                         C# D C#
Безглавое тело я долго топтал
F#                         C# D C#
И молча на деву, бледнея, взирал.
F#                         C# D C#
Я помню моленья... текущую кровь...
F#                   E       A  G#
Погибла гречанка, погибла любовь!

F#                         C# D C#
С главы ее мертвой сняв черную шаль,
F#                         C# D C#
Отер я безмолвно кровавую сталь. 
F#                         C# D C#
Мой раб, как настала вечерняя мгла,
F#                   E       A  G#
В дунайские волны их бросил тела.

B                      D#
С тех пор не целую прелестных очей,
B                      A
С тех пор я не знаю веселых ночей.
C#                       E
Гляжу, как безумный, на черную шаль,
B          A       F#     G#
И хладную душу терзает печаль.

Соло:
e-1--------2--5--2--9-|
B---------------------| 
G---------------------|
D---------------------|
 
e-9----10----10b----9-|
B---------------------|
G---------------------|
D---------------------|
 
e-------------5-----9-|
B---------7-----7----|
G---------------------|
D---------------------|

e-9----10----12b----9-|
B---------------------|
G---------------------|
D---------------------|
  
e-------------------------|
B---------------9---------|
G-11--------11-----11-----|
D----------------------12-|
 
e----------------------------------|
B----------------------------------|
G----------------------------------|
D-11--11b--11--11b--11--12--11--12-|
  
e-----19------14------12------17-|
B--------------------------------|
G-16------16------14------14-----|
D--------------------------------|

e-----14--------------16------11-|
B-------------14-----------------|
G-----------------13------13-----|
D-16------16---------------------|

Комментарий автора:

А.С.Пушкин

ЧЕРНАЯ ШАЛЬ
 
 
Свернуть Распечатать

Видео