Алеша Митюшкин - Устал я жить в родном краю, аккорды

Прокрутка
Тональность
Шрифт
100
Проигрыш:
E||---------------------|--------|
B||----------5----------|--5-----|
G||-------6-------6-----|--6-----|
D||----6----------------|--6-----|
A||-4-------------------|--4-----|
E||---------------------|--------|

E-------------------|--------------|-------------------|
B-------------------|--------------|-------------------|
G----------8--------|--8-----------|-----------6-------|
D-------9-------9---|--9-----------|--------7-------7--|
A----9--------------|--9-----------|-----7-------------|
E-7-----------------|--7-----------|--5----------------|
            
E---------------|-------------3----------|-3-----|
B---------------|----------0-------0-----|-3-----|
G-6-------------|-------0-------------0--|-4-----|
D-7-------------|------------------------|-5-----|
A-7-------------|----2-------------------|-5-----|
E-5-------------|-3----------------------|-3-----|

C#5
Устал я жить в родном краю
B5
В тоске по гречневым просторам,
A5
Покину хижину мою,
G5
Уйду бродягою и вором.

C#
Пойду по белым кудрям дня
B
Искать убогое жилище.
A
И друг любимый на меня
G
Наточит нож за голенище.

D#
А месяц будет плыть и плыть,
C#
Роняя весла по озерам...
A
И Русь все так же будет жить,
F#
Плясать и плакать у забора.

C#5
Весной и солнцем на лугу
B5
Обвита желтая дорога,
A5
И та, чье имя берегу,
G5
Меня прогонит от порога.

C#
И вновь вернуся в отчий дом,
B
Чужою радостью утешусь,
A
В зеленый вечер под окном
G
На рукаве своем повешусь.

D#
А месяц будет плыть и плыть,
C#
Роняя весла по озерам...
A
И Русь все так же будет жить,
F#
Плясать и плакать у забора.

Соло:
E-5--5--5--7--7--5--------|--7--7--7--9--9--7-------|
B-------------------5--5--|--------------------7--7-|
 
E-3--3--3--5--5--3-------|-10--10--10--12--12--10---------|
B-------------------3--3-|-------------------------10--10-|

D#5
Седые вербы у плетня
C#5
Нежнее головы наклонят.
A5
И необмытого меня
F#5
Под лай собачий похоронят.

D#
А месяц будет плыть и плыть,
C#
Роняя весла по озерам...
A
И Русь все так же будет жить,
F#
Плясать и плакать у забора.

Комментарий автора:

Есенин С.А.
"Устал я жить в родном краю..."
 
 
Свернуть Распечатать

Видео