Алеша Митюшкин - Романс принца Гамлета, аккорды

Прокрутка
Тональность
Шрифт
100
C5              B5
Как быстро обгоняют нас 
    G5          F#5   
Возлюбленные наши. 
C5
Видит Бог, 
            B5                  G5
Но я б так быстро добежать не смог 
        F#5
И до безумья. 
G5
Ох, Гораций мой, 
G5
Мне, кажется, пора домой. 
C5             B5
Поля, дома, закат на волоске, 
     G5                 F#5 G5
Вот Дания моя при ветерке, 
C5                   B5
Офелия купается в реке. 
G5          F#5 G5
Я — в Англию. 

Проигрыш:
G------1-----------------|-------1----------------|
D-1-------3s--4----3--1--|--1-------3s--4----3--1-|
A------------------------|------------------------|
E------------------------|------------------------|

G------------------------|------------------------|
D------4--3s--1----------|-------4--3s--1---------|
A-2----------------2--4--|--2----------------2--4-|
E------------------------|------------------------|

G-----------------------|------------------------|
D------0----------------|-------0--2s--0---------|
A---------3~----0----2--|-------------------0--2-|
E-1---------------------|--1---------------------|

G------------------------|------------------------|
D------------------------|------------------------|
A-4----5--7s--4----5--3--|--4----5--7s--4----5--7-|
E------------------------|------------------------|

D#
Мне в Англии не быть. 
B
Кого-то своевременно любить, 
F
кого-то своевременно забыть, 
C#
кого-то своевременно убить, 
D#5                B5
и сразу непременная тюрьма — 
F5                    C#5
и спятить своевременно с ума. 

A#5                  G5
Вот Дания. А вот ее король. 
C#5              D5    C5   E5
Когда-нибудь и мне такая роль... 
A#5
А впрочем — нет... 
G5
Пойду-ка прикурю... 
C#5      D5       C5        E5
Гораций мой, я в рифму говорю! 

A#                  G
Как быстро обгоняют нас 
C#  D     C   E
возлюбленные наши.
A#          
В час безумья 
G             C#   D  C    E
мне кажется — еще нормален я,...

D#
Мне в Англии не быть. 
B
Кого-то своевременно любить, 
F
кого-то своевременно забыть, 
C#
кого-то своевременно убить, 
D#5                B5
и сразу непременная тюрьма — 
F5                    C#5
и спятить своевременно с ума. 

Проигрыш:
E||-------------12----------------|-----12----------------------12-|
B||---------12------12------------|-12------12--------------12-----|
G||-----12--------------12-----12-|-------------12------12---------|
D||-10----------------------9-----|--------------------------------|
A||-------------------------------|-----------------10-------------|
 
E---------------------x---------|-----------------------------------------|
B-12-------------12------12-----|-----------------------------------------|
G-----12-----12--------------12-|--------12--------12--------12--------12-|
D-------------------------------|-----12--------12--------12--------12----|
A---------9----------10---------|-10--------10--------10--------10--------|

A#5            G5 
когда давно Офелия моя 
C#5         D5     C5 E5
лепечет язычком небытия. 
A#5                     G5 
Так в час любови, в час безумья — вы, 
C#5      D5     C5    E5
покинув освещенные дома, 

A#                      G
не зная ни безумства, ни любви, 
C#    D     C       E
Целуете и сходите с ума.
A#                           G
Мне кажется, что сбился мой берет. 
C#        D          C           E
Вот кладбище — прекрасный винегрет, 
A#                      G
Огурчики — налево и направо, 
C#       D
Еще внизу, 
C                   E
А сверху мы — приправа. 
A#                             G
Не быть иль быть — вопрос прямолинейный 
C#      D       C#        E
Мне задает мой бедный ум, и нервный 

D#
Все просится ответ: не быть, НЕ БЫТЬ, 
B
Кого-то своевременно забыть, 
F
Кого-то своевременно любить, 
C#
Кого-то своевременно... Постой!

D#           
Не быть иль быть! 
B                     F              C#
Не быть иль быть!— какой-то звук пустой. 

D#
Здесь все, как захотелось небесам. 
B
Я, впрочем, говорил об этом сам. 
F
Гораций мой, я верил чудесам, 
C#
Которые появятся извне. 
D#
Безумие — вот главное во мне. 
B
Позор на Скандинавский мир. 
F
Далёко ль до конца, Вильям Шекспир? 
C#
Далёко ль до конца, милорд. 
C#
Какого чорта, в самом деле...

Комментарий автора:

Иосиф Бродский

"Романс принца Гамлета"

Композиция идет с 2:45 на Видео
 
 
Свернуть Распечатать

Видео