Запрещают песни Цоя, Агата Кристи, Наутилус Помпилиус, Зиверт
Отвечаем в отдельной теме

Алиса - Все в наших руках, аккорды

Прокрутка
Тональность
Шрифт
100
  Dm        Am  Dm          Am  Dm 
 E|---------------------------------|
 B|--5-6-8-5-------5-6-8-5--------5-|
 G|-7--------5-7-7---------5-7---7--|
 D|7------------7--------------7----|
 A|---------------------------------|
 E|---------------------------------|

          Am  Dm        B      A 
 E|---------------------------------|
 B|-6-8-5---6-6-5---------6-------5-|
 G|------5-7------7-5-4-3---5-3-2---|
 D|---------------------------------|
 A|---------------------------------|
 E|---------------------------------|

  A# 
Кровь городов
   Am 
В сердце дождя,
 F                C 
Песни звезд у земли на устах.
  A#
Радость и грусть,
  Am 
Смех и печаль, -
               Dm 
Все в наших руках.

  A#
Визг тормозов,
   Am 
Музыка крыш -
 F                C 
Выбор смерти на свой риск и страх.
  A#
Битва за жизнь
   Am 
Или жизнь ради битв -
               Dm 
Все в наших руках.

  A#
Что проросло,
   Am 
То привилось, -
 F                C 
Звезды слов или крест на словах.
  A#
Жизнь без любви
   Am 
Или жизнь за любовь -
               Dm 
Все в наших руках.
 
 

Видео