Алиса - Веретено, аккорды

Прокрутка
Тональность
Шрифт
100
Вступление (сыграть дважды):
               Gm
e|-17-15-17----15---------------------------------| 
B|-------------------15---------------------------| x2 

               Eb
e|-13-11-13----11---------------------------------| 
B|-------------------11---------------------------| x2 

Проигрыш во время куплета:
    Gm                                        Cm
e|-------------5----------------------------------------------------------------------|
B|----------3------------------------------------------8--10--------------------------|
G|-------3------------------------------------------8---------------------------------|
    F                                         Dm
e|--------------------------------------------------------8---------------------------|
B|-----------8--10--------------------------------------------------------------------|
G|--------8-----------------------------------------7--7------------------------------|

 Gm   Cm
 Облака
 F               Dm
 Гонит в осень туман,
 Gm   Cm
 Над водой
 F             Dm
 Золотой караван.
 Gm   Cm
 По лесам
 F             Dm
 Заплутали дожди,
 Gm   Cm
 С ними я,
 F             Dm
 До капели не жди.

Припев:

Проигрыш во время припева:
    Gm                                        Cm
e|------------------------------------------------------------------------------------|
B|--------3--------3--------3-----------------------3--------3--------3---------------|
G|-----5--------5--------5-----0--2--3-----------5--------5--------5-----0--2--3------|

    F                                         D
e|--------------------------------------------------1--------1--------1---------------|
B|--------3--------3--------3--------------------3--------3--------3--------2--3------|
G|-----5--------5--------5-----0--2--3-----------------------------------3------------|

	          Gm          Cm
	 Опять игра, опять кино,
        	F         Dm
	 Снова выход на бис.
	          Gm          Cm
	 Плетет судьбу веретено
        	F       Dm
	 За чертою кулис.
	          Gm          Cm
	 Когда-нибудь замедлить бег
        	F       Dm
	 И, уже не спеша,
	          Gm          Cm
	 Увидеть, как берет разбег
          F  Dm
	 Душа...

Проигрыш (сыграть дважды):
    Gm                                        F6
e|-----------------------------------------------------------------------5--------3---|
B|--------3-----------------------------1-----3---------------------------------------|
G|-(0)-------------0-----2-----3------------------------------------------------------|

    Eb                                        D
e|-----------------------------5--------3---------------------------------------------|
B|--3-----------------------------------------1--------------------------1------------|
G|--------------------------------------------------------------3-----------------3---|

 Gm   Cm
 Снег летит,
 F             Dm
 Кружит время метель,
 Gm   Cm
 Над землей -
 F           Dm
 Белая канитель.
 Gm   Cm
 По весне
 F             Dm
 Ливни ринутся в бой,
 Gm   Cm
 С ними я
 F             Dm
 Возвращаюсь домой.

Припев:
	          Gm          Cm
	 Опять игра, опять кино,
        	F         Dm
	 Снова выход на бис.
	          Gm          Cm
	 Плетет судьбу веретено
        	F       Dm
	 За чертою кулис.
	          Gm          Cm
	 Когда-нибудь замедлить бег
        	F       Dm
	 И, уже не спеша,
	          Gm          Cm
	 Увидеть, как берет разбег
          F  Dm
	 Душа...

Проигрыш (сыграть дважды):
    Gm                                              F6
e|-----------5--------3-----------------------------5------------6-----5--------------|
B|--3-----------------------3-----------------3---------------------------------------|
G|-----------------------------------5------------------------------------------------|
    Eb                                              Gb
e|-----------10-------8-----------------------------6------------8-----6--------------|
B|--8-----------------------8---------------------------------------------------------|
G|-----------------------------------7--------8---------------------------------------|

Припев:
	          Gm          Cm
	 Опять игра, опять кино,
        	F         Dm
	 Снова выход на бис.
	          Gm          Cm
	 Плетет судьбу веретено
        	F       Dm
	 За чертою кулис.
	          Gm          Cm
	 Когда-нибудь замедлить бег
        	F       Dm
	 И, уже не спеша,
	          Gm          Cm
	 Увидеть, как берет разбег
          F  Dm
	 Душа...

Кода = вступление:
               Gm
e|-17-15-17----15---------------------------------| 
B|-------------------15---------------------------| x2 

               Eb
e|-13-11-13----11---------------------------------| 
B|-------------------11---------------------------| x2 

Комментарий автора:

В исходном варианте стихов (вместо "Гонит в осень туман"):
"Прячет в осень туман"
 
 
Свернуть Распечатать

Видео