Allman Brothers - Jessica, аккорды

Прокрутка
Тональность
Шрифт
100
Hey yall this is the real intro to jessica the part
before the other tabs come in, i learned it from a
guitar book so its all good :-)

---0-0--------0-0-0---0---0----0-0-------0-0-0---0--0----|
---2-2--------3-3-3---2---0----2-2-------3-3-3---2--0----|
---2-2--------2-2-2---2---0----2-2-------2-2-2---2--0----|
---2-2--------4-4-4---2---0----2-2-------4-4-4---2--0----|
-0-------0-0-----------------0-------0-0-----------------|
-------3---------------------------3---------------------|

---0-0--------0-0-0---0---0----0-0-------0-0-0---0--0---|
---2-2--------3-3-3---2---0----2-2-------3-3-3---2--0---|
---2-2--------2-2-2---2---0----2-2-------2-2-2---2--0---|
---2-2--------4-4-4---2---0----2-2-------4-4-4---2--0---|
-0-------0-0-----------------0-------0-0----------------|
-------3---------------------------3--------------------|
now into the lead part of the song have fun its
a great song to play
 
 

Видео