Allman Brothers - Jessica, аккорды

Прокрутка
Тональность
Шрифт
100
Top Gear/ Jessica

JPS87

This song is really easy but it helps if youve heard it!

-------9-10-12-10-9------------------|------9-10-9-----------------------|
----10--------------10---------------|---10--------10--------------------|
--9--------------------9----------9--|-9--------------9----------9-9-----|
-------------------------12-11-12----|------------------12-11-12---------|
-------------------------------------|-----------------------------------|
-------------------------------------|-----------------------------------|


-------9-10-12-10-9------------------|------9-10-12-10-9----------------------|
----10--------------10---------------|---10--------------10-------------------|
--9--------------------9----------9--|-9--------------------9-----------------|
-------------------------12-11-12----|------------------------12-11-12-11-----|
-------------------------------------|------------------------------------12--|
-------------------------------------|----------------------------------------|


-----------------------------10-15--12---|
--------------------10-12-13-------------|
------------9-11-12----------------------|
----9-10-12------------------------------|
-12--------------------------------------|
-----------------------------------------|

AT the end of the 1st and 3rd bars the 9 is a half bend down.
 
 

Видео