Allman Brothers - Midnight Rider, аккорды

Прокрутка
Тональность
Шрифт
100
Midnight Rider - The Allman Brothers

bass enters at about 0:15


  main riff    play main riff x3 then this for bridge
G|------------|-------------|
D|------------|----5h7-3----|
A|5---5-3-----|5--5------53-|
E|---5-----134|------------5|

  play main riff x6 for verse then this
G|---------------|
D|5--------------|
A|---------------|
E|---3-5-6-8-6---|

For the solo try spicing the main riff up with any improv that comes to you.

  at about 2:00 this occurs
       (x2)            (x1) 
G|-----------------|--------------------------|
D|------5------3-5-|------5--5-7-8-108-7-5-3-2|
A|3-5-7----5-7-----|3-5-7---------------------|
E|-----------------|--------------------------|

A tab by Achilles (blue_sincere@hotmail.com)
 
 

Видео