Alter Bridge - Love Can Only Heal, аккорды

Прокрутка
Тональность
Шрифт
100
[Intro]

     Em                         Emadd9                        Esus4
Eb|--------------------------------------------------------------------------------------------------------|
Bb|--------8-----8-----8-----8-----7-----7-----7-----7-----10-----10-----10-----10-----8-----8-----8-------|
Gb|----9-----9-----9-----9-----9-----9-----9-----9-----9------9------9------9------9-----9-----9-----9-----|
Db|------9-----9-----9-----9-----9-----9-----9-----9-----9------9------9------9------9-----9-----9-----9---|
Ab|--------------------------------------------------------------------------------------------------------|
Eb|--0-----0-----0-----0-----0-----0-----0-----0-----0-----0------0------0------0------0-----0-----0-------|



[Verse 1]
     Em              Emadd9
In another life, in another place
       Esus4                              Em
Maybe you'd have found what bring some to believe
     Em                   Emadd9
On a different road, in a perfect space
      Esus4                                   Em
Maybe all the hurt you've known would fail to be


[Chorus]
               Am
Never mind the pain
                    D
Cause love can only heal
                  G                  D/F#
If only you could trade the dark for light
           Em
It might reveal
     D                 Am
That there's a place inside
                   B7
Don't be afraid to feel
                    Em
Cause love can only heal

[Intro]
     Em                         Emadd9                        Esus4
Eb|--------------------------------------------------------------------------------------------------------|
Bb|--------8-----8-----8-----8-----7-----7-----7-----7-----10-----10-----10-----10-----8-----8-----8-------|
Gb|----9-----9-----9-----9-----9-----9-----9-----9-----9------9------9------9------9-----9-----9-----9-----|
Db|------9-----9-----9-----9-----9-----9-----9-----9-----9------9------9------9------9-----9-----9-----9---|
Ab|--------------------------------------------------------------------------------------------------------|
Eb|--0-----0-----0-----0-----0-----0-----0-----0-----0-----0------0------0------0------0-----0-----0-------|


[Verse 2]
       Em                  Emadd9
Did it let you Go when you lost your way
       Esus4                               Em
Did it throw you to the wind and watch you break
        Em                     Emadd9
Does it haunt you now, are you ever safe
         Esus4                             Em
From the empty space inside that you can't take


[Chorus]
               Am
Never mind the pain
                    D
Cause love can only heal
                  G                  D/F#
If only you could trade the dark for light
           Em
It might reveal
     D                 Am
That there's a place inside
                   B7
Don't be afraid to feel
                    C
Cause love can only heal


[Break]
                Am
La-lala-lala-lala
                Em
La-lala-lala-lala
                D
La-lala-lala-lala
                    C
Cause love can only heal

                Am
La-lala-lala-lala
                Em
La-lala-lala-lala
                D
La-lala-lala-lala
                D

[Chorus]
               Am
Never mind the pain
                    D
Cause love can only heal
                  G                  D/F#
If only you could trade the dark for light
           Em
It might reveal
     D                 Am
That there's a place inside
                   B7
Don't be afraid to feel
                    Em
Cause love can only heal


[Intro]
     Em                         Emadd9                        Esus4
Eb|--------------------------------------------------------------------------------------------------------|
Bb|--------8-----8-----8-----8-----7-----7-----7-----7-----10-----10-----10-----10-----8-----8-----8-------|
Gb|----9-----9-----9-----9-----9-----9-----9-----9-----9------9------9------9------9-----9-----9-----9-----|
Db|------9-----9-----9-----9-----9-----9-----9-----9-----9------9------9------9------9-----9-----9-----9---|
Ab|--------------------------------------------------------------------------------------------------------|
Eb|--0-----0-----0-----0-----0-----0-----0-----0-----0-----0------0------0------0------0-----0-----0-------|



[Break]
                Am
La-lala-lala-lala
                Em
La-lala-lala-lala
                D
La-lala-lala-lala
                    C
Cause love can only heal

                Am
La-lala-lala-lala
                Em
La-lala-lala-lala
                D
La-lala-lala-lala
                    C
Cause love can only heal

     C      B  Am         Em
Eb|------0----------0-------------0----|
Bb|-----1----------1-------------0-----|
Gb|----0----------2-------------0------|
Db|---2----------2-------------2-------|
Ab|--3------2~--0-------------2--------|
Eb|--------------------2~----0---------|

End Em
 
 
Свернуть Распечатать

Видео