Алёна Швец - Луна, аккорды

Прокрутка
Тональность
Шрифт
100
Каподастр: 5 лад

  Куплет 1:

Dm                             Am
  На гитаре играть я почти не умею,
                        C
  Но много миллионов подростков
                       Em
  Со мной почему-то согласны —
                      Dm
  Наверное, им тоже непросто.
                   Em
  И вот становится поздно —
                     F
  Спускается синими гроздьями
                  G
  Такая большая Луна…



Припев:

             F                    G
На-на, на-на-на, одна, и я тоже одна,
             F                   G
На-на, на-на-на, обижена и влюблена,
             F                     G
На-на, на-на-на, расстроена и холодна…


Куплет 2:
Dm                              Am
  Я привыкла писать эти сложные вещи
                     C
  Такими простыми словами,
                     Em
  И лунное сердце трепещет —
                          Dm
  Оставить секрет между нами.
                     Em
  Когда стану не интересна —
                       F
  Поранит, поставит на место.
                              G
  Зажгусь в океане небесном…



Припев:

F                  G
…такая большая Луна,
             F                    G
На-на, на-на-на, одна, и я тоже одна,
             F                      G
На-на, на-на-на, расстроена и влюблена,
             F                  G    F   G
На-на, на-на-на, обижена и холодна…



Припев:

Бой: ↓↓↓ ↓↓↓↓ ⇣⇡

F                  G
…такая большая Луна,
             F                    G
На-на, на-на-на, одна, и я тоже одна,
             F                   G
На-на, на-на-на, обижена и влюблена,
             F                     G    A
На-на, на-на-на, расстроена и холодна…

Бой: ↓↓↑↑↓↓↓↑

F                  G
…такая большая Луна,
             F                    G
На-на, на-на-на, одна, и я тоже одна,
             F                   G
На-на, на-на-на, обижена и влюблена,
             F                     G    A
На-на, на-на-на, расстроена и холодна…

Бой: ↓↓↓ ↓↓↓↓ ⇣⇡

F               G
  Такая большая, такая большая,
F               G
  Такая большая, такая большая,
F              G
  Такая большая Луна…

Табы:

E |--------------1-------------|--------------0-------------|
B |-----------3-----3----------|-----------1-----1----------|
G |--------2-----------2-------|--------2-----------2-------|
D |-----0-----------------0----|-----2-----------------2----|
A |--0-------------------------|--0-------------------------|
E |----------------------------|----------------------------|

                                                          
--------------0-------------|--------------0-------------|
----------------------------|----------------------------|
-----------0-----0----------|-----------0-----0----------|
--------2-----------2-------|--------2-----------2-------|
-----3-----------------3----|-----2-----------------2----|
--3-------------------------|--0-------------------------|

                                                          
--------------1-------------|--------------0-------------|
-----------3-----3----------|----------------------------|
--------2-----------2-------|-----------0-----0----------|
-----0-----------------0----|--------2-----------2-------|
--0-------------------------|-----2-----------------2----|
----------------------------|--0-------------------------|

                                                          
--------------1-------------|--------------3-------------|
----------------------------|----------------------------|
-----------2-----2----------|-----------4-----4----------|
--------3-----------3-------|--------5-----------5-------|
-----3-----------------3----|-----5-----------------5----|
--1-------------------------|--3-------------------------|

                                                          
--------------1-------------|--------------3-------------|
----------------------------|----------------------------|
-----------2-----2----------|-----------4-----4----------|
--------3-----------3-------|--------5-----------5-------|
-----3-----------------3----|-----5-----------------5----|
--1-------------------------|--3-------------------------|

                                                          
--------------1-------------|--------------3-------------|
----------------------------|----------------------------|
-----------2-----2----------|-----------4-----4----------|
--------3-----------3-------|--------5-----------5-------|
-----3-----------------3----|-----5-----------------5----|
--1-------------------------|--3-------------------------|

                                                          
--------------1-------------|--------------3-------------|
----------------------------|----------------------------|
-----------2-----2----------|-----------4-----4----------|
--------3-----------3-------|--------5-----------5-------|
-----3-----------------3----|-----5-----------------5----|
--1-------------------------|--3-------------------------|

                               ^     
--------------1-------------|--3----|
----------------------------|--3----|
-----------2-----2----------|--4----|
--------3-----------3-------|--5----|
-----3-----------------3----|--5----|
--1-------------------------|--3----|
 
 
Свернуть Распечатать

Аппликатуры аккордов

Аккорд DmАккорд AmАккорд CАккорд EmАккорд FАккорд GАккорд AАккорд EАккорд BАккорд D
AkkordsProAkkordsPro
автор подбора аккордов
7,225 6 01.12.2021

Видео