Запретили песни Цоя, Агата Кристи, Наутилус Помпилиус, Зиверт
Отвечаем в отдельной теме

Алёна Швец - Самая странная, аккорды

Прокрутка
Тональность
Шрифт
100
Вступление

Capo 5th fret
E
|-----------0----------|-----------3----------|-----------0----------|-----------0----------|
B
|--------0-----0-------|--------0-----0-------|--------1-----1-------|--------3-----3-------|
G
|-----------------0----|-----------------0----|-----2-----------2----|-----2-----------2----|
D
|--2-------------------|--0-------------------|--2-------------------|--0-------------------|
A
|----------------------|----------------------|----------------------|----------------------|
E
|----------------------|----------------------|----------------------|----------------------| * эта партия играется во вступлении и в первой половине первого припева Припев
Em
G
Am
Самая странная встречает рассветы
D
На крыше зачем-то
Em
G
Am
Чувствует небо, так доверяет ветру
D
И носит гетры
Em
G
Am
Сушит цветы, в её сумке лежат ромашки
D
Там сбоку в кармашке
Em
G
Am
Если встретишь такую сквозь много лет,
D
Em
От меня передай привет,
G
Am
D
От меня передай привет Куплет 1 Таким перебором обыгрываются аккорды в первой половине куплета. Обратите внимание, что в первом квадрате играется аккорд Asus2, а в остальных квадратах его нет.
E
|-----------1----------|--1--------1----------|-----------0----------|--0--------0-----0----|
B
|--------------1-------|-----1--------1-------|--------1-----0-------|-----0--------0-------|
G
|--------2--------2----|--------2--------2----|-----2-----------2----|--------2-------------|
D
|-----3----------------|----------------------|--2-------------------|----------------------|
A
|--3-------------------|----------------------|----------------------|----------------------|
E
|----------------------|----------------------|----------------------|----------------------|
E
|-----------1----------|--1--------1----------|-----------0----------|--0--------0-----0----|
B
|--------------1-------|-----1--------1-------|--------1-----1-------|-----1--------1-------|
G
|--------2--------2----|--------2--------2----|-----2-----------2----|--------2-------------|
D
|-----3----------------|----------------------|--2-------------------|----------------------|
A
|--3-------------------|----------------------|----------------------|----------------------|
E
|----------------------|----------------------|----------------------|----------------------|
E
|-----------1----------|--1--------1----------|-----------0----------|--0--------0-----0----|
B
|--------------1-------|-----1--------1-------|--------1-----1-------|-----1--------1-------|
G
|--------2--------2----|--------2--------2----|-----2-----------2----|--------2-------------|
D
|-----3----------------|----------------------|--2-------------------|----------------------|
A
|--3-------------------|----------------------|----------------------|----------------------|
E
|----------------------|----------------------|----------------------|----------------------|
E
|-----------1----------|--1--------1----------|-----------0----------|--0--------0-----0----|
B
|--------------1-------|-----1--------1-------|--------1-----1-------|-----1--------1-------|
G
|--------2--------2----|--------2--------2----|-----2-----------2----|--------2-------------|
D
|-----3----------------|----------------------|--2-------------------|----------------------|
A
|--3-------------------|----------------------|----------------------|----------------------|
E
|----------------------|----------------------|----------------------|----------------------|
F
Am
Asus2
Знаю я много печальных историй
F
Am
Четверть, клянусь, сочинила сама
F
Am
Я повидала так много боли,
F
Am
Сколько вместили мои глаза
F
Am
Девочка-солнце лучистое, летнее чудо,
F
Am
Ты приходила во сне, я же слышала шум,
F
Am
Как мне найти тебя, милая моя подруга,
F
Am
Что про тебя я тогда непременно скажу? Припев
Em
G
Am
Самая странная встречает рассветы
D
На крыше зачем-то
Em
G
Am
Чувствует небо, так доверяет ветру
D
И носит гетры
Em
G
Am
Сушит цветы, в её сумке лежат ромашки
D
Там сбоку в кармашке
Em
G
Am
Если встретишь такую сквозь много лет,
D
Em
От меня передай привет,
G
Am
D
От меня передай привет Куплет 2
F
Am
Asus2
Грозы венчали нас в полночь с любимой,
F
Am
Из проволоки надеваю кольцо,
F
Am
В после я помнила в алых царапинах спину,
F
Am
Но не могу никак вспомнить твое лицо
F
Am
С ней повстречались наверное в прошлом веке,
F
Am
Так бывает лишь раз и в тысячу лет,
F
Am
Что вдруг находишь в одном человеке
F
Am
Столько знакомых и очаровательных черт Припев
Em
G
Am
Самая странная встречает рассветы
D
На крыше зачем-то
Em
G
Am
Чувствует небо, так доверяет ветру
D
И носит гетры
Em
G
Am
Сушит цветы, в её сумке лежат ромашки
D
Там сбоку в кармашке
Em
G
Am
Если встретишь такую сквозь много лет,
D
Em
От меня передай привет,
G
Am
От меня передай привет
D
Em
От меня передай привет.

Комментарий автора:

Бой песни: ↓ ↓↑↓↑  ↓ ↓↑↓↑ 
 
 

Видео