Anacondaz - Сядь мне на лицо (feat. кис-кис), аккорды

Прокрутка
Тональность
Шрифт
100
интро

     С				  Em		   F
E |----------------|----------------------------|----------------|-------|
B |----------------|----------------------------|----------------|-------|
G |--5--5--5--5----|----------------------------|----------------|-------|
D |--5--5--5--5----|--2--2--2--2--2--2--2--2----|--3--3--3--3----|-------|
A |--3--3--3--3----|--2--2--2--2--2--2--2--2----|--3--3--3--3----|--8s---|
E |----------------|--0--0--0--0--0--0--0--0----|--1--1--1--1----|-------|

Куплет 1
C	           Em
Я знаю все твои загоны
F                F G B
Я знаю все твои повадки
C		       Em
Не смущайся на стене иконы
               F G B 
Она осталась от бабки
C			   Em
А помнишь, мы гуляли в школе?
F
Гарри Поттера смотрели вместе
C		Em
Я тебе сыграю Цоя —
F
Это мой плейлист для секса

Припев
C     Em         F  
Сядь, сядь мне на лицо
C     Em         F   
Сядь, сядь мне на лицо

Брлбрлбрлбрлбрлбрлбрлбрлбрлбрлбрлбрлбрлбрлбрлбрлбрлбрлбрлбрлбрлбрлбрлбрлбрлбрлбрлбрлбр
E |----------------------------|----------------------------|----------------------------
B |----------------------------|----------------------------|----------------------------
G |--5--5--5--5--5--5--5--5----|----------------------------|----------------------------
D |--5--5--5--5--5--5--5--5----|--2--2--2--2--2--2--2--2----|--3--3--3--3--3--3--3--3----
A |--3--3--3--3--3--3--3--3----|--2--2--2--2--2--2--2--2----|--3--3--3--3--3--3--3--3----
E |----------------------------|--0--0--0--0--0--0--0--0----|--1--1--1--1--1--1--1--1----

E |----------------------------
B |----------------------------
G |--------------3--4--4--4----
D |--6--5--5--5--3--4--4--4----
A |--6--5--5--5--1--2--2--2----
E |--4--3--3--3----------------

Брлбрлбрлбрлбрлбрлбрлбрлбрлбрлбрлбрлбрлбрлбрлбрлбрлбрлбрлбрлбрлбрлбрлбрлбрлбрлбрлбрлбр
E |----------------------------|----------------------------|----------------------------
B |----------------------------|----------------------------|----------------------------
G |--5--5--5--5--5--5--5--5----|----------------------------|----------------------------
D |--5--5--5--5--5--5--5--5----|--2--2--2--2--2--2--2--2----|--3--3--3--3--3--3--3--3----
A |--3--3--3--3--3--3--3--3----|--2--2--2--2--2--2--2--2----|--3--3--3--3--3--3--3--3----
E |----------------------------|--0--0--0--0--0--0--0--0----|--1--1--1--1--1--1--1--1----

E |----------------------------
B |----------------------------
G |----------------------------
D |--------4-----4--6--4-------
A |--2M-2M----2M----------4----
E |----------------------------

Куплет 2
C			Em
Я знаю все твои загоны
F                F G B
Я знаю все твои повадки
А надо было в Гугл Хроме
Удалять открытые закладки
А помнишь, ты послала на хуй
Когда я залипал в треклятой доте?
C C	               Em Em
Чё ты косишься на вазу с прахом?
   F     F
			Бабушка не будет против 
----------------------------|----------------------------|
--------------6-------------|----------------------------|
-----------------9--7-------|--7--9-----7.----5.---------|
--3M----3M-------------10---|----------------------------|
--3M----3M------------------|----------------------------|
--1M----1M------------------|----------------------------|

Припев
C     Em         F     
Сядь, сядь мне на лицо
C     Em         F     
Сядь, сядь мне на лицо

Брлбрлбрлбрлбрлбрлбрлбрлбрлбрлбрлбрлбрлбрлбрлбрлбрлбрлбрлбрлбрлбрлбрлбрлбрлбрлбрлбрлбр
E |----------------------------|----------------------------|----------------------------
B |----------------------------|----------------------------|----------------------------
G |--5--5--5--5--5--5--5--5----|----------------------------|----------------------------
D |--5--5--5--5--5--5--5--5----|--2--2--2--2--2--2--2--2----|--3--3--3--3--3--3--3--3----
A |--3--3--3--3--3--3--3--3----|--2--2--2--2--2--2--2--2----|--3--3--3--3--3--3--3--3----
E |----------------------------|--0--0--0--0--0--0--0--0----|--1--1--1--1--1--1--1--1----

Ради матери с отцом
E |----------------------------
B |----------------------------
G |--------------3--4--4--4----
D |--6--5--5--5--3--4--4--4----
A |--6--5--5--5--1--2--2--2----
E |--4--3--3--3----------------

Брлбрлбрлбрлбрлбрлбрлбрлбрлбрлбрлбрлбрлбрлбрлбрлбрлбрлбрлбрлбрлбрлбрлбрлбрлбрлбрлбрлбр
E |----------------------------|----------------------------|----------------------------
B |----------------------------|----------------------------|----------------------------
G |--5--5--5--5--5--5--5--5----|----------------------------|----------------------------
D |--5--5--5--5--5--5--5--5----|--2--2--2--2--2--2--2--2----|--3--3--3--3--3--3--3--3----
A |--3--3--3--3--3--3--3--3----|--2--2--2--2--2--2--2--2----|--3--3--3--3--3--3--3--3----
E |----------------------------|--0--0--0--0--0--0--0--0----|--1--1--1--1--1--1--1--1----

Сядь, сядь, сядь, сядь мне на лицо
E |----------------------------
B |----------------------------
G |----------------------------
D |--------4-----4--6--4-------
A |--2M-2M----2M----------4----
E |----------------------------

Куплет 3
C			Em
Я знаю все твои привычки
F                F G B
Я нашла все улики
Ты мне оставил в личке
Лилипутские дикпики
Кидал подборку из порнхаба
Давай сегодня отдохнём прилично
Я буду чёрным огромным парнем
А ты белой девочкой с косичкой
Мы нарядим тебя в передник
Кляп из латекса заменим соской
Обещаю быть самой нежной
Как пушок на теле у подростка
Долго говорить не будем
Переходим к развлечениям
C C	               Em Em
Ты — актриса в Голливуде
   F     F
            На приёме у Харви Вайнштейна
----------------------------|----------------------------|
--------------6-------------|----------------------------|
-----------------9--7-------|--7--9-----7.----5.---------|
--3M----3M-------------10---|----------------------------|
--3M----3M------------------|----------------------------|
--1M----1M------------------|----------------------------|

Припев
C     Em         F     
Сядь, сядь мне на лицо
C     Em         F     
Сядь, сядь мне на лицо

Брлбрлбрлбрлбрлбрлбрлбрлбрлбрлбрлбрлбрлбрлбрлбрлбрлбрлбрлбрлбрлбрлбрлбрлбрлбрлбрлбрлбр
E |----------------------------|----------------------------|----------------------------
B |----------------------------|----------------------------|----------------------------
G |--5--5--5--5--5--5--5--5----|----------------------------|----------------------------
D |--5--5--5--5--5--5--5--5----|--2--2--2--2--2--2--2--2----|--3--3--3--3--3--3--3--3----
A |--3--3--3--3--3--3--3--3----|--2--2--2--2--2--2--2--2----|--3--3--3--3--3--3--3--3----
E |----------------------------|--0--0--0--0--0--0--0--0----|--1--1--1--1--1--1--1--1----

Не тупи, не будь глупцом
E |----------------------------
B |----------------------------
G |--------------3--4--4--4----
D |--6--5--5--5--3--4--4--4----
A |--6--5--5--5--1--2--2--2----
E |--4--3--3--3----------------

Брлбрлбрлбрлбрлбрлбрлбрлбрлбрлбрлбрлбрлбрлбрлбрлбрлбрлбрлбрлбрлбрлбрлбрлбрлбрлбрлбрлбр
E |----------------------------|----------------------------|----------------------------
B |----------------------------|----------------------------|----------------------------
G |--5--5--5--5--5--5--5--5----|----------------------------|----------------------------
D |--5--5--5--5--5--5--5--5----|--2--2--2--2--2--2--2--2----|--3--3--3--3--3--3--3--3----
A |--3--3--3--3--3--3--3--3----|--2--2--2--2--2--2--2--2----|--3--3--3--3--3--3--3--3----
E |----------------------------|--0--0--0--0--0--0--0--0----|--1--1--1--1--1--1--1--1----

Сядь, сядь, сядь, сядь мне на лицо
E |----------------------------
B |----------------------------
G |----------------------------
D |--------4-----4--6--4-------
A |--2M-2M----2M----------4----
E |----------------------------


Бридж
  C        C		             F        G
Забыты до завтра
-----------------12---------|----------------------------|
--------------------13-10---|--12------------------------|
--5--------5----------------|----------------------------|
--5--------5----------------|--------3--------5----------|
--3--------3.---------------|--------3--------5----------|
----------------------------|--------1--------3----------|

  A        A
Эйлер и Байес
----------------------------|----------------------------|
-----------------12---------|--10----------12-12---------|
--------------------12-12---|-----12-9--12-------9-------|
--7--------7----------------|----------------------------|
--7--------7----------------|----------------------------|
--5--------5.---------------|----------------------------|

  C        C			     F        G
Тебе не видно — и ладно
-----------------12---------|----------------------------|
--------------------13-10---|--12------------------------|
--5--------5----------------|----------------------------|
--5--------5----------------|--------3--------5----------|
--3--------3.---------------|--------3--------5----------|
----------------------------|--------1--------3----------|
  
  Em       Em
 Но я улыбаюсь
----------------------------|----------------------------|
----------------------------|----------------------------|
----------------------------|----------------------------|
--2--------2----------------|----------------------------|
--2--------2--------5--5L---|--5-------------------------|
--0--------0----------------|-----7--7-----7-------------|

C   	 F   G
Забыты до завтра
A  
Эйлер и Байес
C   	 F   G
Тебе не видно — и ладно
Em
Но я улыбаюсь

Куплет 4
C   	                        F   G
Твоя мама Достоевским страсть как увлечена
A  
Я, конечно, не чета, но могу зачитать
C   	                        F   G
Тебе свой рэп шероховатый, как язык Буковски
Em
Как шрифт Брайля — никаких букв плоских
Никакой там нет нежной пошлости:
Ты мне не киса, не зая, и хоть бросай
Ты мой супер-истребитель только без шасси
Я твоя взлетно-посадочная полоса

Проигрыш
C Em F 

Посткуплет
C     Em         F     
Сядь, сядь мне на лицо
C     Em         F     
Сядь, сядь мне на лицо

О-о-о-о-о-о-о-о-о-о-о-о-о-о-о-о-о-о-о-о-о-о-о-о-о-о-о-о-о-о-о-о-о-о-о-о-о-о-о-о-о-о-о
E |----------------------------|----------------------------|----------------------------
B |----------------------------|----------------------------|----------------------------
G |--5--5--5--5--5--5--5--5----|----------------------------|----------------------------
D |--5--5--5--5--5--5--5--5----|--2--2--2--2--2--2--2--2----|--3--3--3--3--3--3--3--3----
A |--3--3--3--3--3--3--3--3----|--2--2--2--2--2--2--2--2----|--3--3--3--3--3--3--3--3----
E |----------------------------|--0--0--0--0--0--0--0--0----|--1--1--1--1--1--1--1--1----

Подари сперва кольцо
E |----------------------------
B |----------------------------
G |--------------3--4--4--4----
D |--6--5--5--5--3--4--4--4----
A |--6--5--5--5--1--2--2--2----
E |--4--3--3--3----------------

О-о-о-о-о-о-о-о-о-о-о-о-о-о-о-о-о-о-о-о-о-о-о-о-о-о-о-о-о-о-о-о-о-о-о-о-о-о-о-о-о-о-о
E |----------------------------|----------------------------|----------------------------
B |----------------------------|----------------------------|----------------------------
G |--5--5--5--5--5--5--5--5----|----------------------------|----------------------------
D |--5--5--5--5--5--5--5--5----|--2--2--2--2--2--2--2--2----|--3--3--3--3--3--3--3--3----
A |--3--3--3--3--3--3--3--3----|--2--2--2--2--2--2--2--2----|--3--3--3--3--3--3--3--3----
E |----------------------------|--0--0--0--0--0--0--0--0----|--1--1--1--1--1--1--1--1----

Сядь, сядь, сядь, сядь мне на лицо
E |----------------------------
B |----------------------------
G |----------------------------
D |--------4-----4--6--4-------
A |--2M-2M----2M----------4----
E |----------------------------


 
 
Свернуть Распечатать

Аппликатуры аккордов

Аккорд EmАккорд FАккорд EАккорд BАккорд GАккорд DАккорд AАккорд C
rebel28rebel28
автор подбора аккордов
14,479 31 26.05.2021

Видео