Анатолий Крупнов - Я остаюсь, аккорды

Прокрутка
Тональность
Шрифт
100
Intro: x8
E|-------------------
B|-------------------
G|--6/8-8-8---6/8-8--
D|--6/8-8-8---6/8-8--
A|--4/6-6-6---4/6-6--
E|-------------------

Verse:
pm
E|-66-6-66-6-66-6-66-6-
А мы опять стоим, и в трюме вода,

E|-66-6-66-6-66-6-66-6-
И ты опять твердишь, что надо бежать,

A|-66-6-66-6-66-6-66-6-
И ты опять твердишь, что надо туда,

E|-66-6-66-6-66-6-66-6-
Где не качает, сухо, и есть чем дышать,

pm
E|-66-6-66-6-66-6-66-6-
Но ведь и здесь есть шанс, пускай один из дести,

E|-66-6-66-6-66-6-66-6-
Пусть время здесь вперед, не мчится - ползет,

A|-66-6-66-6-66-6-66-6-
И пусть остаться здесь трудней чем уйти,

  F#5     F5
D|-4------3-
A|-4------3-
E|-2------1-
Я все же верю, что мне повезет...

Chorus:
E|--------------------------------------------
B|--------------------------------------------
G|------------------6/8-8-8---6---------------
D|--1------4--6-----6/8-8-8---6---------------
A|--1--1h3-4--6-----4/6-6-6---4---------------
E|---------2--4-------------0---0-0-0-0-0-0-0-
  И я,        Я остаюсь,

E|---------------------------------------------
B|---------------------------------------------
G|---------------------------------------------
D|--6----9--------11---------------------------
A|--6----9--------11---------------------------
E|--4----7---------9-------0000-0000-0000-0000-
   Там    где мне хочется быть,

E|--------------------------------------------
B|--------------------------------------------
G|------------------------6/8-8-8-------------
D|---6-----9-------11-----6/8-8-8-------------
A|---6-----9-------11-----4/6-6-6-------------
E|---4-----7--------9-------------0-0000-0000-
  И пусть,    я немного боюсь,

E|---------------------
B|---------------------
G|---------------------
D|---6--9-11-----9---8-
A|---6--9-11-----9---8-
E|---4--7--9-----7---6-
  Но я,    я остаюсь,

E|----------------------------------
B|----------------------------------
G|-------------------6/8-8-8--6/8-8-
D|-------------------6/8-8-8--6/8-8-
A|-------------------4/6-6-6--4/6-6-
E|----------------------------------
    Я остаюсь чтобы жить!

Verse:
pm
E|-66-6-66-6-66-6-66-6-
Ты говоришь, что здесь достаточно зла, 

E|-66-6-66-6-66-6-66-6-
И ты спешишь скорей отсюда уйти, 

A|-66-6-66-6-66-6-66-6-
Ты говоришь, что мне неволя мила, 

E|-66-6-66-6-66-6-66-6-
И свято веришь в правду другого пути. 

pm
E|-66-6-66-6-66-6-66-6-
Бежать и плыть, лететь, куда, все равно, 

E|-66-6-66-6-66-6-66-6-
Лишь бы туда, где нет и не было нас. 

A|-66-6-66-6-66-6-66-6-
Ты говоришь, здесь все погибло давно,

  F#5     F5
D|-4------3-
A|-4------3-
E|-2------1-
И слишком много чужих среди нас. 

Chorus:
E|--------------------------------------------
B|--------------------------------------------
G|------------------6/8-8-8---6---------------
D|--1------4--6-----6/8-8-8---6---------------
A|--1--1h3-4--6-----4/6-6-6---4---------------
E|---------2--4-------------0---0-0-0-0-0-0-0-
  И я,        Я остаюсь,

E|---------------------------------------------
B|---------------------------------------------
G|---------------------------------------------
D|--6----9--------11---------------------------
A|--6----9--------11---------------------------
E|--4----7---------9-------0000-0000-0000-0000-
   Там    где мне хочется быть,

E|--------------------------------------------
B|--------------------------------------------
G|------------------------6/8-8-8-------------
D|---6-----9-------11-----6/8-8-8-------------
A|---6-----9-------11-----4/6-6-6-------------
E|---4-----7--------9-------------0-0000-0000-
  И пусть,    я немного боюсь,

E|---------------------
B|---------------------
G|---------------------
D|---6--9-11-----9---8-
A|---6--9-11-----9---8-
E|---4--7--9-----7---6-
  Но я,    я остаюсь,

E|----------------------------------
B|----------------------------------
G|-------------------6/8-8-8--6/8-8-
D|-------------------6/8-8-8--6/8-8-
A|-------------------4/6-6-6--4/6-6-
E|----------------------------------
    Я остаюсь чтобы жить!

Verse:
pm
E|-66-6-66-6-66-6-66-6-
Я здесь привык, я здесь как будто в строю, 

E|-66-6-66-6-66-6-66-6-
Я вижу все, хоть здесь и мало огней. 

A|-66-6-66-6-66-6-66-6-
И на ногах я здесь так твердо стою, 

E|-66-6-66-6-66-6-66-6-
А чтоб стоять, я должен держаться корней. 

pm
E|-66-6-66-6-66-6-66-6-
Я здесь привык, я здесь не так одинок, 

E|-66-6-66-6-66-6-66-6-
Хоть иногда, но здесь я вижу своих. 

A|-66-6-66-6-66-6-66-6-
Когда начнет звенеть последний звонок, 

  F#5     F5
D|-4------3-
A|-4------3-
E|-2------1-
Я буду здесь, если буду живым. 

Chorus:
E|--------------------------------------------
B|--------------------------------------------
G|------------------6/8-8-8---6---------------
D|--1------4--6-----6/8-8-8---6---------------
A|--1--1h3-4--6-----4/6-6-6---4---------------
E|---------2--4-------------0---0-0-0-0-0-0-0-
  И я,        Я остаюсь,

E|---------------------------------------------
B|---------------------------------------------
G|---------------------------------------------
D|--6----9--------11---------------------------
A|--6----9--------11---------------------------
E|--4----7---------9-------0000-0000-0000-0000-
   Там    где мне хочется быть,

E|--------------------------------------------
B|--------------------------------------------
G|------------------------6/8-8-8-------------
D|---6-----9-------11-----6/8-8-8-------------
A|---6-----9-------11-----4/6-6-6-------------
E|---4-----7--------9-------------0-0000-0000-
  И пусть,    я немного боюсь,

E|---------------------
B|---------------------
G|---------------------
D|---6--9-11-----9---8-
A|---6--9-11-----9---8-
E|---4--7--9-----7---6-
  Но я,    я остаюсь,

E|----------------------------------
B|----------------------------------
G|-------------------6/8-8-8--6/8-8-
D|-------------------6/8-8-8--6/8-8-
A|-------------------4/6-6-6--4/6-6-
E|----------------------------------
    Я остаюсь чтобы жить!
 
 

Видео