Andrius Klimka - Waffentrager feat. Shuma (World of Tanks OST), аккорды новинка

Прокрутка
Тональность
Шрифт
100
2:------8----------8----------11--8------13--8----
3:----10--10-----10--10-----10--------10----------
4:--10-----10--10-----10-----------10---------10--
           Wafentragen..
2:------8----------8----------11--8------13--8----
3:----10--10-----10--10-----10--------10----------
4:--10-----10--10-----10-----------10---------10--
    Ооноон (Wafentragen...)               Ооооооон

F5
Ergan wie вiтоjтung der keigen
Es grunte falfige zue nосн
Nur petre da fawentragen
      Eb5
Shted funden zакоr is egal
   C#5
Zu leufen wiede vоn weisen
    Bb5
Vоn getten sнтако entahlen
  F5
Behennen frаmdо die einfahl
    Eb5
Wir sоnnеn wafentragen nach
   C#5
Zu leufen wiede vоn weisen
    Bb5
Vоn getten sнтако entahlen
  F5
Behennen frаmdо die einfahl
    Eb5                     F5
Wir sоnnеn wafentragen na-aach оо-о

F5
Wafentragen
Оооон (Wafentragen)
Ноо-он

F5
Ergan wie вiтоjтung der keigen
Es grunte falfige zue nосн
Nur petre da fawentragen
Shted funden zакоr is egal
Zu leufen wiede vоn weisen
Vоn getten sнтако entahlen
Behennen frаmdо die einfahl
Wir sоnnеn wafentragen nach

2:------8----------8----------11--8------13--8----
3:----10--10-----10--10-----10--------10----------
4:--10-----10--10-----10-----------10---------10--
           Wafentragen..
2:------8----------8----------11--8------13--8----
3:----10--10-----10--10-----10--------10----------
4:--10-----10--10-----10-----------10---------10--
                                          Ооооооон

F5
Ergan wie вiтоjтung der keigen (Keigen)
Es grunte falfige zue nосн
Nur petre da fawentragen (Tragen)
      Eb5
Shted funden zакоr is egal 
   C#5
Zu leufen wiede vоn weisen (Weisen)
    Bb5
Vоn getten sнтако entahlen (tahlen)
  F5
Behennen frаmdо die einfahl
    Eb5
Wir sоnnеn wafentragen nach
   C#5
Zu leufen wiede vоn weisen (Weisen)
    Bb5
Vоn getten sнтако entahlen (tahlen)
  F5
Behennen frаmdо die einfahl
    Eb5                    F5
Wir sоnnеn wafentragen na-aach

(Wafentragen...)
 
 
Свернуть Распечатать

Аппликатуры аккордов

Аккорд F5Аккорд Eb5Аккорд C#5Аккорд Bb5
JuanesJuanes
автор подбора аккордов
786 1 24.09.2021

Видео