Зачем удалили Цоя?
Отвечаем в отдельной теме

Animal Jazz - Три полоски, аккорды

Прокрутка
Тональность
Шрифт
100
  Как же       произошло,       жизнь опять, словно белый лист 
e-------1p0-----------1p0---1-3---------1p0------------------- 
B----3------1-----3-------1---------3-------1----------------- 
G--2---2--------2---2-------------2---2-----------------2-0--- 
D-0------------0------------------------------------3-3------- 
A-------------------------------1----------------3------------ 
E----------------------------------------------1--------------
 
  Мажет        красками холст,   красно-желтым  ее каприз 
e-------1p0-----------1p0---1-3---------1p0------------------- 
B----3------1-----3-------1---------3-------1----------------- 
G--2---2--------2---2-------------2---2-----------------2-0--- 
D-0------------0------------------------------------3-3------- 
A-------------------------------1----------------3------------ 
E----------------------------------------------1-------------- 

  Ночь все     перевернет       и оставит боль  на потом 
e-------1p0-----------1p0---1-3---------1p0------------------- 
B----3------1-----3-------1---------3-------1----------------- 
G--2---2--------2---2-------------2---2-----------------2-0--- 
D-0------------0------------------------------------3-3------- 
A-------------------------------1----------------3------------ 
E----------------------------------------------1-------------- 

  Точно        еще повезет      с теплом... 
e-------1p0-----------1p0---1-3---------1p0------------------- 
B----3------1-----3-------1---------3-------1----------------- 
G--2---2--------2---2-------------2---2-----------------2-0--- 
D-0------------0------------------------------------3-3------- 
A-------------------------------1----------------3------------ 
E----------------------------------------------1-------------- 
 
 F                 Dm
Джинсы порезаны, лето  
          Am
Три полоски на кедах,  
        A#
Под теплым дождем...  
 F                Dm
Ты снова лучше всех,  
          Am
А дачу, маму, билеты  
   A#
Мы переживем... 
 
Зайди в знакомый подъезд, поднимись на восьмой этаж 
e-------1p0-----------1p0---1-3---------1p0------------------- 
B----3------1-----3-------1---------3-------1----------------- 
G--2---2--------2---2-------------2---2-----------------2-0--- 
D-0------------0------------------------------------3-3------- 
A-------------------------------1----------------3------------ 
E----------------------------------------------1--------------

Смотри, как солнышко ест этот мир - он уже не наш 
e-------1p0-----------1p0---1-3---------1p0------------------- 
B----3------1-----3-------1---------3-------1----------------- 
G--2---2--------2---2-------------2---2-----------------2-0--- 
D-0------------0------------------------------------3-3------- 
A-------------------------------1----------------3------------ 
E----------------------------------------------1--------------

Скоро наступит сентябрь, SMS-ом пришлет пароль 
e-------1p0-----------1p0---1-3---------1p0------------------- 
B----3------1-----3-------1---------3-------1----------------- 
G--2---2--------2---2-------------2---2-----------------2-0--- 
D-0------------0------------------------------------3-3------- 
A-------------------------------1----------------3------------ 
E----------------------------------------------1--------------

Он оденет тебя в новую любовь... 
e-------1p0-----------1p0---1-3---------1p0------------------- 
B----3------1-----3-------1---------3-------1----------------- 
G--2---2--------2---2-------------2---2-----------------2-0--- 
D-0------------0------------------------------------3-3------- 
A-------------------------------1----------------3------------ 
E----------------------------------------------1--------------
 
 F               Dm
Джинсы порезаны, лето  
         Am
Три полоски на кедах,  
       A#
Под теплым дождем...  
 F               Dm
Ты снова лучше всех,  
         Am
А дачу, маму, билеты  
  A#
Мы переживем... 
 
   Лишь   несколько слов могут убить... 
e----0--------1p0------------------------------ 
B---3-3-1---3----1------------------------------ 
G--2-------2-2------------------2-1-----2----2-- 
D---------------------------3-3-------3----3---- 
A-0-------1---------------3---------5----3------ 
E-----------------------1----------------------- 
 
   Но,   если веришь в любовь, стоит еще жить... 
e----0--------1p0---------------------------------------- 
B---3-3-1---3----1--------------------------------------- 
G--2-------2-2---------------------------2-1-----2----2-- 
D------------------------------------3-3-------3----3---- 
A-0-------1-----------------------3---------5----3------- 
E------------------------------1------------------------- 
 
Лишь несколько слов могут убить... 
  Но, если веришь в любовь,    стоит еще       Dm F 
e----0--------1p0------------------------------ 
B---3-3-1---3----1----------------------------- 
G--2-------2-2---------------------------2-1--- 
D------------------------------------3-3------- 
A-0-------1-----------------------3------------ 
E------------------------------1--------------- 
 
 F               Dm
Джинсы порезаны, лето  
         Am
Три полоски на кедах,  
       A#
Под теплым дождем...  
 F               Dm
Ты снова лучше всех,  
         Am
А дачу, маму, билеты  
  A#
Мы переживем...

Комментарий автора:

p - pull off.
 
 
Свернуть Распечатать

Видео