Антоха МС - Родина, аккорды

Прокрутка
Тональность
Шрифт
100
F#m                 Bm 
Родина, красная смородина, 
               A                C#
Где растешь чудесница, росой омываешься 
F#m                 Bm 
Родина, красная смородина, 
               A                C#
Где растешь чудесница, росой омываешься 
F#m                 Bm               A 
Родина, аль жива смородина, вы ли это? 
          C#         F#m 
Тяга, почему-то, горькая 

Проигрыш между куплетами:
1)-5-5-5-5-5-5424--4-4-4-4-4-4575-42-2-2-2-2-2454-21-1-1--------
2)-------------------------------------------------------2-232--

2)-----------------------5--3---3--------------------------------
3)---6--6--6--6--6-----------6---6---6--6--6--6--6--6------------
4)-47-47-47-47-47-47---------------47-47-47-47-47-47-------7---6-

      F#m   Bm
Ни с места, скажет постовой 
     A                 C#
Ты ушел с головой, в наряженный строй 
F#m             Bm
Брат за кормой, Мать за кормой, 
 A                    C#
Тело стало не легким, Все пошло трын травой 

F#m                 Bm 
Родина, красная смородина, 
               A                C#
где растешь чудесница, росой омываешься 
F#m                 Bm               A 
Родина, аль жива смородина, вы ли это? 
          C#         F#m 
Тяга, почему-то, горькая

Проигрыш между куплетами:
1)-5-5-5-5-5-5424--4-4-4-4-4-4575-42-2-2-2-2-2454-21-1-1--------
2)-------------------------------------------------------2-232--

2)-----------------------5--3---3--------------------------------
3)---6--6--6--6--6-----------6---6---6--6--6--6--6--6------------
4)-47-47-47-47-47-47---------------47-47-47-47-47-47-------7---6-

F#m                 Bm 
Шаг назад, перед тобою снаряд, 
     A                 C#
готовый отряд, телом за так 
F#m                 Bm 
Смысл прощать, а жизнь продолжать, 
     A               C#
Тело, стало, не легким, Брату зарядку стоит познать

F#m                 Bm 
Родина, красная смородина, 
               A                C#
где растешь чудесница, росой омываешься 
F#m                 Bm 
Родина, красная смородина, 
               A                C#
где растешь чудесница, росой омываешься 
F#m                 Bm              A 
Родина, аль жива смородина, вы ли это? 
          C#         F#m 
Тяга, почему-то, горькая
 
 
Свернуть Распечатать

Видео