Апина Алена - Узелки, аккорды

Прокрутка
Тональность
Шрифт
100
Вступление: 
      Gm              G      Cm
e|-------6-5-3--5h6-5-3-1------
b|----3-3----------------4-3-1-
g|-3-5-------------------------
d|-----------------------------
a|-----------------------------
e|-----------------------------
      Cm    Gm7   A D  Gm
e|-------1---------------
b|----1-3-4-3------------
g|-2-3---------3-0-0-2-0-
d|----------------2-4----
a|-----------------------
e|-----------------------
   D  Gm              G      Cm
e|-------6-5-3--5h6-5-3-1------
b|----3-3----------------4-3-1-
g|-3-5-------------------------
d|-----------------------------
a|-----------------------------
e|-----------------------------
      Cm    Gm7   A D  Gm D
e|-------1---------------
b|----1-3-4-3------------
g|-2-3---------3-0-0-2-0-
d|----------------2-4----
a|-----------------------
e|-----------------------
 
Gm                     Cm   D
  Полюбила парня, да не угадала
D                       D7  Gm
 Вовсе не такого я во сне видала
Fm         G       G7        Cm
 Я его слепила из того, что было
Cm           Gm        Cm D Fm G
 А потом что было, то и полюбила
Cm           Gm         D#   D  D7
 А потом что было, то и полюбила
    Gm                G      Cm
Узелок завяжется, узелок развяжется
   Cm         Gm7             A       D   Gm 
А любовь она и есть - только то, что кажется
D   Gm                G      Cm
Узелок завяжется, узелок развяжется
   Cm         Gm7             A       D   Gm D
А любовь она и есть - только то, что кажется

Все у нас связалось в узелки тугие
У меня проблемы, у него - другие
Я его слепила из того, что было
А потом что было, то и полюбила
А потом что было, то и полюбила
Узелок завяжется, узелок развяжется
А любовь она и есть - только то, что кажется
Узелок завяжется, узелок развяжется
   Cm         Gm7             A       D   Gm E
А любовь она и есть - только то, что кажется

Am                        Dm   E
 Это лишь минутка, как слеза упала
E                       E7      Am
 Я же не сказала, что любовь пропала
Gm         A         A7      Dm
 Я его слепила из того, что было
Dm           Am        Dm E Gm A
 А потом что было, то и полюбила
Dm           Am        F     E  E7
 А потом что было, то и полюбила
    Am                A      Dm
Узелок завяжется, узелок развяжется
   Dm         Am7             B       E   Am 
А любовь она и есть - только то, что кажется
E   Am                A      Dm
Узелок завяжется, узелок развяжется
     Dm         Am7           B       E   Am
А любовь она и есть - только то, что кажется
E   Dm         Am7            B       E   Am
А любовь она и есть - только то, что кажется

Проигрыш: 
      Am              A      Dm
e|-------8-7-5--7h8-7-5-3------
b|----5-5----------------6-5-3-
g|-5-7-------------------------
d|-----------------------------
a|-----------------------------
e|-----------------------------
      Dm    Am7   B E  Am
e|-------3---------------
b|----3-5-6-5------------
g|-4-5---------5-2-2-4-2-
d|----------------4-6----
a|-----------------------
e|-----------------------
   E  Am              A      Dm
e|-------8-7-5--7h8-7-5-3------
b|----5-5----------------6-5-3-
g|-5-7-------------------------
d|-----------------------------
a|-----------------------------
e|-----------------------------

     Dm         Am7           B       E   Am
А любовь она и есть - только то, что кажется
     Dm         Am7           B       E   Am
А любовь она и есть - только то, что кажется
     Dm         Am            B       E   Am
А любовь она и есть - только то, что кажется
 
 
Свернуть Распечатать

Видео