Апина Алена - Электричка, аккорды

Прокрутка
Тональность
Шрифт
100
E--5---5-5-3-5----------------3---3-3-1-3--0-0-0---0--------|
B--------------6-6-6-5-6-5-3---------------------3---3-1----|
G-----------------------------------------------------------|
D-----------------------------------------------------------|
A-----------------------------------------------------------|
E-----------------------------------------------------------|

E-1---1-1-0-1----------------------------------0------------|
B-------------3-3-3-1-3-1-0-------0-1--1-0-1-3--------------|
G-----------------------------1-2---------------------------|
D-----------------------------------------------------------|
A-----------------------------------------------------------|
E-----------------------------------------------------------|

Am
1.В городе осень. И дождь, и слякоть.        
Dm             
Hy как тут не плакать, как тут не плакать?   
E7 - Am Bm7 - B
Как тут слезинкам с ресниц не капать во тьму?  
Am
Ты все сказала, ты все сказала                 
Dm
Ему на прощанье там y вокзала.                
E7 - A         
Сердце устало, но видно мало ему,             

Cm - A7       
Hy что же -                             
Dm - E7       
Плачь y порога, девчонка-недотрога,     
Am - F 
Жизнь разделила железная дорога.        
Dm - E7 - Am - A7 
Странной звездою горит зеленый семафор. 

Dm - G      
Он уехал прочь на ночной электрике,        
Em - Am     
В темноте шагов ты все ждешь по привычке.   
Dm - E7     
Осень и печаль - две подружки-сестрички.   
Am A - A7 
Рядом с тобой этой ночью немой.            
Dm - G      
Он уехал прочь на ночной электричке,       
Em - Am     
С горя б закурить, да промокли все спички. 
Dm - E      
Осень и печаль - две подружки-сестрички    
Am - E - Am E 
Девочка, плачь, все пройдет весной.        

Am
2.В городе осень, и дождь и слякоть.
Dm
Hy как тут не плакать, как тут не плакать?
E7 - Am Bm7 - B
Как тут слезинкам с ресниц не капать во тьму?
Am
Но осень не вечна, и дождь не вечен -
Dm
Ты, вспомнив однажды тот горький вечер,
E7 - A         
Лишь улыбнешься - и крыть тут нечем, пойми.

Cm - A7       
Но нынче -
Dm-E7       
Плачь y порога, девчонка-недотрога,
Am - F 
Жизнь разделила железная дорога.
Dm - E7 - Am - A7 
Странной звездою горит зеленый семафор.
 
 

Видео